Cruel Sea - Cocaine Chords & Tabs

 

Cocaine Chords & Tabs

Cruel Sea Chords & Tabs

Version: 1 Type: Tab 0 ratings
1 star 2 stars 3 stars 4 stars 5 stars
comments

Cocaine Tab

Song:     Cocaine
Artist:   The Cruel Sea
Album:    Where theres smoke
Original: Dillenger
Tabbed By:  Chris

This is the main riff for Cocaine as i hear it.
[ Tab from: http://www.guitartabs.cc/tabs/c/cruel_sea/cocaine_tab.html ]
e----------------------------------------------|
B----------------------------------------------|
G----------------------------------------------|
D----------------------------------------------|
A----------------3b----------------------------|
E--0-0-0-2--3--5----5----0-0-0-2-3-5-3b-5------|
    PM                     PM

Palm mute the open E.

This is just about perfect if you listen to song.

I think Public Enemy's sampled this for Shake your Booty. I haven't
heard shake your booty for a while, but it think its exactly the same.
Either that or something like:

A----------------3b------------------3b---------|
E--0-0--0---3--5----5----5-5--5--3-5-----5------|


Can someone with some ability tab some Cruel Sea songs. Theres nothing
available.

chrisneal13@hotmail.com
Comments