Cruel Sea - Better Get A Lawyer Chords & Tabs

 

Better Get A Lawyer Chords & Tabs

Cruel Sea Chords & Tabs

Version: 1 Type: Tab 0 ratings
1 star 2 stars 3 stars 4 stars 5 stars
comments

Better Get A Lawyer Tab

This Is a Band That My dad Listens to And i started to like them.  THIS BAND DOES EXIST
but I couldnt find this tab anywhere so i made the start up. it sounds pretty cool
though.     s=slide        standard tuning
[ Tab from: http://www.guitartabs.cc/tabs/c/cruel_sea/better_get_a_lawyer_tab.html ]
E]---------------------------------------------|
B]---------------------------------------------|
G]-------------------------------------------2-|
D]-5-4-2---5-4-2------------5-4-2---5-4-2----2-|
A]-5-4-2---5-4-2------------5-4-2---5-4-2----0-|
E]-3s2-0---3s2-0------------3s2-0---3s2-0------|

E]--------------------------|
B]--------------------------|
G]-----------------------2--|
D]-5-4-2---5-4-2---5-4-2-2--|
A]-5-4-2---5-4-2---5-4-2-0--|
E]-3s2-0---3s2-0---3s2-0----|
Comments