Crucified Barbara - Killer On His Knees Chords & Tabs

 

Killer On His Knees Chords & Tabs

Crucified Barbara Chords & Tabs

Version: 1 Type: Tab 0 ratings
1 star 2 stars 3 stars 4 stars 5 stars
comments

Killer On His Knees Tab

   
-------------------------------------------------------------------------------
                        KILLER ON HIS KNEES - Crucified Barbara
-------------------------------------------------------------------------------
Tabbed by: DelcoStratos


Tuning: C# G# C# F# A# D#
[ Tab from: http://www.guitartabs.cc/tabs/c/crucified_barbara/killer_on_his_knees_tab.html ]
Intro clean
|---------------------------------------------------------------------------|
|---------------------------------------------------------------------------|
|---------------------------------------------------------------------------| x2
|--------------------3-3-3-3------------------------------------------------| 
|-5----6----5----3------------5----6----5----3---1-1-1-1--------------------|
|---00---00---00---0------------00---00---00---0----------------------------|
     
Riff 1 (metal distortion)
|---------------------------------------------------------------------------|
|---------------------------------------------------------------------------|
|---------------------------------------------------------------------------| x2
|--------------------3-3-3-3---------------------3-3-3-3--------------------|
|-5----6----5----3------------5----6----5----3------------------------------|
|---00---00---00---0------------00---00---00---0----------------------------|
    ..   ..   ..   .            ..   ..   ..   .
|---------------------------------------------------------------------------|
|---------------------------------------------------------------------------|
|---------------------------------------------------------------------------|
|-8---8---8---8--4-4-4-4--7---7---7---7--3-3-3-3----------------------------|
|-6-6-6-6-6-6-6-----------5-5-5-5-5-5-5-------------------------------------|
|---------------------------------------------------------------------------|
    .   .   .               .   .   . 
|---------------------------------------------------------------------------|
|---------------------------------------------------------------------------|
|---------------------------------------------------------------------------|
|--------------------3-3-3-3----------------------3-5-----------------------|
|-5----6----5----3------------5----6----5----3----3-5-----------------------|
|---00---00---00---0------------00---00---00---0--3-5-----------------------|
    ..   ..   ..   .            ..   ..   ..   .
Riff 2
|---------------------------------------------------------------------------|
|---------------------------------------------------------------------------|
|---------------------------------------------------------------------------| x8
|---------------------------------------------------------------------------|
|-----2----0----3--5------2----0----3--5------------------------------------|
|-000-2-00-0-00-3--5--000-2-00-0-00-3--5------------------------------------|
  ...   ..   ..       ...   ..   ..
Riff 3
|---------------------------------------------------------------------------|
|---------------------------------------------------------------------------|
|---------------------------------------------------------------------------|
|---------------------------------------------------------------------------|
|----5~-----3~-------------------5~----3~-----------------------------------|
|-0------0------000-222-000---0-----0-----000-222-000-----------------------|
                ... ... ...               ... ... ...
Riff 4
|---------------------------------------------------------------------------|
|---------------------------------------------------------------------------|
|-7--5--4--5----7--5--4--2--------------------------------------------------|
|-7--5--4--5----7--5--4--2--------------------------------------------------|
|-5--3--2--3----5--3--2--0--------------------------------------------------|
|---------------------------------------------------------------------------|

Riff 1 x2
Riff 2 x8
Riff 3
Riff 4

Riff 5
|---------------------------------------------------------------------------|
|---------------------------------------------------------------------------|
|-7------7-5------5-4------5----7--5--4--2----------------------------------|
|-7------7-5------5-4------5----7--5--4--2----------------------------------|
|-5-5555-5-3-3333-3-2-2222-3----5--3--2--0----------------------------------|
|---------------------------------------------------------------------------|
    ....     ....     ....  
Riff 1 x2 (second guitar during the second repetition make a slide pickin)

Riff 6
|------------------------------------------------------------------------------------------------|
|------------------------------------------------------------------------------------------------|
|-7------------------------------7------------------------------7------------------------------7-|
|-7---------------------3-3-3-3--7---------------------3-3-3-3--7---------------------3-3-3-3--7-|
|-5--5----6----5----3------------5--5----6----5----3------------5--5----6----5----3------------5-|
|------00---00---00---0---------------00---00---00---0---------------00---00---00---0------------|
       ..   ..   ..   .               ..   ..   ..   .               ..   ..   ..   .
Riff 6 (rhytm solo)
|------------|
|------------|
|------------| x4
|------------|
|-000-2-00-0-|
|-000-2-00-0-|
  ...   ..
Riff 2 x2
Riff 3 
Riff 4
Riff 5
(repeat riff 4 and riff 5 until end)

I'm working for solo...coming soon.
************************************

| .   palm muting
| /   slide up
| \   slide down
| h   hammer-on
| p   pull-off
| ~   vibrato
| +   harmonic
| x   Mute note
| b   Bend
| pb  Pre-bend
| br  Bend release
| pbr Pre-bend release
| brb Bend release bend

************************************
Comments