Cruachan - Celtica Chords & Tabs

 

Celtica Chords & Tabs

Cruachan Chords & Tabs

Version: 1 Type: Tab 0 ratings
1 star 2 stars 3 stars 4 stars 5 stars
comments

Celtica Tab

Band - Cruachan (http://cruachan.cjb.net)
Album - The Middle Kingdom
Song - Celtica
Tabber - uuuuhhhhhhhh

x = pm


Riff 1
|------------------------------------------------|
|------------------------------------------------|
|-----------------5------------------------------|
|--2--------------5---------------7---------7--7-|
|--2--------------3--x-x-x-x-x-x--7---------7--7-|
|--2--x-x-x-x-x-x-----------------7-x-x-x-x-7--7-|

guitar that follows flute    
||------------------------|-------------------------|-------------------------|
||------------------------|-------------------------|-------------------------|
||------------------------|-------------------------|-------------------------|
||--2------5--2-----------|-------------------------|----------2--0-----0--2--|
||---------------5--3--5--|--3----2--0-----0--2--3--|--2--0----------3--------|
||------------------------|-------------5-----------|-------------------------|

[ Tab from: http://www.guitartabs.cc/tabs/c/cruachan/celtica_tab.html ]
                            
--------------------------||
--------------------------||
--------------------------||
--5----2--5--7--5h7-5-----||
-----------------------7--||
--------------------------||

Riff2
|----------------------------------------------------------|
|----------------------------------------------------------|
|--------------------5------5------------------------------|
|-----2-------2------5------5-------7------7------7------7-|
|-----2-------2--x-x-3--x-x-3-------7------7------7------7-|
|-x-x-2---x-x-2-----------------x-x-7--x-x-7--x-x-7--x-x-7-|

Chorus (not sure what the exact values are, but listen to the song)
|-----------------------------------------|
|-----------------------------------------|
|-4--4-4-------------4--4-4---------------|
|-4--4-4--2-x-x-2-2--4--4-4--2-0-x-x-0-0--|
|-2--2-2--2-x-x-2-2--2--2-2--2-0-x-x-0-0--|
|---------2-x-x-2-2----------2-0-x-x-0-0--|

Bridge (pm the whole thing)
|-------------------------------------------|
|-------------------------------------------|
|-------------------------------------------|
|-------------------------------------------|
|-------------------------------------------|
|-2--2-2-2--2-2--7--7-7-7--7--5--5-5-5--5-5-|

after the synth stuff repeat all that was in the biginning.
Listen to the song to know how many times the riffs repeat....
Comments