Crowned King - Turn It Up We're Going Down Chords & Tabs

 

Turn It Up We're Going Down Chords & Tabs

Crowned King Chords & Tabs

Version: 1 Type: Tab 0 ratings
1 star 2 stars 3 stars 4 stars 5 stars
comments

Turn It Up We're Going Down Tab

Song: Turn It Up We're Going Down
Tabbed by: Laura
Tuning: Standard EADGBe
I've got everything here but the solo, which is pretty crazy.
I think this is like the only tab for this song on the whole internet.
I haven't found another. But this song deserves one cause it's awesome.

Thanks Julian for figuring out the song!

Intro
|----------------------------------------------|
|----------------------------------------------|
|---------7-9--------7-9------------7777-------|
|---9-9-9-7-9--9-9-9-7-9--9999-5555-7777-777---|  x2
|---9-9-9-5-7--9-9-9-5-7--9999-5555-5555-777---|
|---7-7-7------7-7-7------7777-3333------555---|

Verse
|------------------|
|------------------|
|------------------|
|--9~~-----7~~-----|
|--9~~-9~~-7~~-7~~-|
|--7~~-6~~-5~~-4~~-|
[ Tab from: http://www.guitartabs.cc/tabs/c/crowned_king/turn_it_up_were_going_down_tab.html ]
Chorus
|---------------------|
|---------------------|
|---------------------|
|--5-5-555-2-22-2222--| x2
|--5-5-555-2-22-2222--|
|--3-3-333-0-00-0000--|

|--------|-------------------------------------|
|--------|-------------------------------------|
|--4~-3~-|--4-4-444------------44-44-4-33-33-3-|
|--3~-2~-|--4-4-444-2-22-2222--33-33-3-22-22-2-|
|--4~-x~-|--2-2-222-2-22-2222--44-44-4-xx-xx-x-|
|-----2~-|----------0-00-0000----------22-22-2-|
everything after the bar is x3

Bridge
|-----
|-----
|-----
|-----
|-2-2- x25 palm mute all of it
|-----

Outro
|--------------------------------|
|--------------------------------|
|-44-44---------44-44-33---------|
|-44-44-22-22-2-33-33-22---------| x6
|-22-22-22-22-2-44-44-xx----0-1--|
|-------00-00-0-------22--2------|

The order of the song is:
Intro
Verse
Chorus
Intro
Verse
Chorus
Bridge
Solo (haven't figured that out)
Chorus
Outro

SUBMIT MORE CK TABS!
Peace
Comments