Crow Sheryl - Strong Enough Chords & Tabs

 

Strong Enough Chords & Tabs

Crow Sheryl Chords & Tabs

Version: 1 Type: Tab 0 ratings
1 star 2 stars 3 stars 4 stars 5 stars
comments

Strong Enough Tab

   
#----------------------------------PLEASE NOTE---------------------------------#
#This file is the author's own work and represents their interpretation of the #
#song. You may only use this file for private study, scholarship, or research. #
#------------------------------------------------------------------------------##
From: j3kaes01@fsrz1.rz.uni-passau.de (KAESTNER JAN)

SHERYL CROW - TUESDAY NIGHT MUSIC CLUB
--------------------------------------
3. STRONG ENOUGH  (3:10)

  6/8   Tempo ca.: 154 bpm
  h=hammer on

Intro and Verse:

  1   2   3   4   5   6     1   2   3   4   5   6
  D               G         Bm              A
                h
E-----2-------0-2---------|-------------------------|
B-----------3---------0---|-----3---------3-----2---|
G-----2-------2-----------|-------------4-----------|   2 times
D-0-------0-----------0---|-----4-----0---------2---|
A-------------------------|-2-------2-------0-------|
E-----------------3-------|-------------------------|

God, I feel like hell tonight                           1
(The) tears of rage I cannot fight                      1
I'd be the last to help you understand                  1
Are you strong enough to be my man?                     1

(My man)                                                1
                                                        3
[second guitar strums the same chords]
Nothing's true and nothing's right                      1
So let me be alone tonight                              1
You can't change the way I am                           1
Are you strong enough to be my man?                     1

Refrain (strum):

  1   2   3   4   5   6   | 1   2   3   4   5   6   |
  Em              D         G               A
  Lie                 to    me                  I

  1   2   3   4   5   6   | 1   2   3   4   5   6   |
  Bm              C         G               A
  promise         I'll be-  lieve

  1   2   3   4   5   6   | 1   2   3   4   5   6   |
  Em              D         G               A
  Lie                 to    me                  But

  1   2   3   4   5   6   | 1   2   3   4   5   6   |
  Bm              C         G               A
  please          don't     leave

  (don't leave)                                         1
                                                        3
[second guitar strums the same chords]
[additional slide guitar]

I have a face I cannot show                             1
I make the rules up as I go                             1
It's try and love me if you can                         1
Are you man enough to be my man?                        1

                                                        1
[Are you strong enough] (to be my man)                  1
[are you strong enough] (to be my man)                  1
[Are you strong enough] (my man)                        1

When I've shown you that I just don't care              1
When I'm throwing punches in the air                    1
When I'm broken down and I can't stand                  1
Will you be strong enough to be my man?                 1

Refrain (strum)

End:

  1   2   3   4   5   6
  D
E-----2-------------------||
B-------------------------||
G-----2-------------------||
D-0-----------------------||
A-------------------------||
E-------------------------||

Chord Formations:
[ Tab from: http://www.guitartabs.cc/tabs/c/crow_sheryl/strong_enough_tab.html ]
The only chord I'm not really sure about is the Bm-chord: it might be
Bm    x 2 4 4 3 x   where it is possible to pull the finger on the d-string
                    up to play as I have noted above or
      2 2 4 4 3 2   but then the picked part should be
                      1   2   3   4   5   6
                      Bm              A
                    E-------------------------|
                    B-----3---------3-----2---|
                    G-------------4-----------|
                    D-----4-----2---------2---|
                    A-2-------2-------0-------|
                    E-------------------------|  which sounds a bit strange.

Any help, remarks and corrections will be appreciated.

Fuer deutsche Gitarristen: ich habe die englische(?) Notierung verwandt.
Bm ist also zu lesen als h-moll.

-----------------------------------------------------------------------------
Jan Kaestner          e-mail: j3kaes01@fsrz1.uni-passau.de
Lederergasse 1
94032 Passau          Sorry about violations against the Nettiquette:
Tel.: 0851/30178      I study law, not computer science
-----------------------------------------------------------------------------

From: jlee@telegraph.com (Jason Lee)
Date: Tue, 27 Jun 95 23:35:52 EDT

~Title:         Strong Enough
Artist:        Sheryl Crow
Album:         Tuesday Night Music Club
Written by:    Sheryl Crow?
Transcribed by:Jason Lee
----------------------------------------------------------------------
This song is quite simple if you know the chords. There is a lot of  
picking involved.                                                    
This may not be accurate but I know it's the right notes.            
This is my second attempt to tab out a song please send comments,    
questions and corrections to the following adress.                   
                                                                     
Jlee@telegraph.com                                                   
                                                                     
If you want some other tabs I maybe able to get it for you.          
I mostly have alternative tabs like nirvana, smashing pumpkins green 
day etc.                                                             
----------------------------------------------------------------------
    D        G         B       A                                        
God I feel like hell tonight, tears of rage I cannot fight...         
This is the main riff just keep playing this until the chorus.      
|---2-----0h2------------------------------------------------------------
|---3----------------------3---2-----------------------------------------
|---2---2----------0-----0-----2-----------------------------------------
|-0---0--------0---3---3-------2-----------------------------------------
|--------------2-2---2-------0-------------------------------------------
|------------3-----------------------------------------------------------


Em            D  G            A  B              C    G       A        
Lie, to me, I promise I'll believe...                                 
This is the chorus, when finished playing this go back to the melody. 
|--0--0--0-0-0--0--0--0--0-0-0--0--0--0--0-0-0-0--0-0--0--0-0--0---------
|--0--0--0-0-0--0--0--0--0-0-0--2--3--3--3-3-3-3--1-1--0--0-0--2---------
|--0--0--0-0-0--0--0--0--0-0-0--2--4--4--4-4-4-4--0-0--0--0-0--2---------
|--2--2--2-2-2--0--0--0--0-0-0--2--4--4--4-4-4-4--2-2--0--0-0--2---------
|--2--2--2-2-2--0--2--2--2-2-2--0--1--1--1-1-1-1--3-3--2--2-2--0---------
|--0--0--0-0-0--2--3--3--3-3-3--0--0--0--0-0-0-0--0-0--3--3-3--0---------


Ce fichier a ‚t‚ cr‚e par Tab 1.1
     
        __   __
       /  `-' (          ,,,
       |[====|||||||||||[:::}
       \__,-.(           '''
     __     Recipe for a perfect day:   
   +|oo|+   Smash some Pumpkins, add Cranberries,  a pinch of Veruca Salt, 
   +ÎooÎ+   spread in some Pearl Jam,  Blind in some Melons and while having 
   +|oo|+   your Green Day,  you reach the sate of Nirvana, give birth to your    
     ||     Offspring and finally, you kill the Weezer by shootin' a big Hole
     ||     in it's hHead(a Montreal band I think).
     ||                                           -JLEE@telegraph.com
     ||  _---------------------\------I------/-----------------------------         
                          
  \\_||_//                       \\   ^   //
   | [] |                          \\ ^ //
  /  []  \  >>>>
  \______/  >>>>>>>>>>>>>>>>>>>>>>>// + \\
Comments