Crossfade - Cold Chords & Tabs

 

Cold Chords & Tabs

Crossfade Chords & Tabs

Version: 4 Type: Tab 0 ratings
1 star 2 stars 3 stars 4 stars 5 stars
comments

Cold Tab

   
Crossfade - Cold

this and exellent song...i would also consider tyring to learn the deep end
im only 14 and have been playing for 6 months but this tab is perfect...


Tuning:Drop D

PM:palm mute
h:hammer
p:pull off
/ \:slide up/down
~~:vibrato
d:down
u:up

 Verse: PM         d.u.d                                               d.u.d
1-----------------------------------||--------------------------------------|
2-----------------------------------||--------------------------------------|
3-----------10-----9-9-9------------||------------10-10------------------12-|
4-0-0-0-----8------7-7-7---(repeat)-||---0-0-0-----8-8--(about 10 times)-10-|
5-0-0-0-----8------7-7-7------------||---0-0-0-----8-8-------------------10-|
6-0-0-0-----8------7-7-7------------||---0-0-0-----8-8-------------------10-|
   ^listen to figure out the rythym        then....

Chorus:
1---------------------------------------------------------------------------|
2---------------------------------------------------------------------------|
3---------------------------------------------------------------------------|
4-8-8---0-0-10-10-10-----3--0-----------------------------------------------|
5-8-8---0-0-10-10-10-----3--0-----------------------------------------------|
6-8-8---0-0-10-10-10-----3--0-----------------------------------------------|

Acoustic Bridge:same chords as chorus;different strumming pattern
[ Tab from: http://www.guitartabs.cc/tabs/c/crossfade/cold_tab_ver_4.html ]
this is played lightly during the bridge:
1---------------------------------------------------------------------------|
2---------------------------------------------------------------------------|
3---7--7----9h10--7h9--7--7--7-7-7--7-7-7---------5-----(repeat twice)------|
4-------------------------------------------5/7-----------------------------|
5---------------------------------------------------------------------------|
6---------------------------------------------------------------------------|

solo: i got funky with this but its played with these notes
1----------------------------------------------------------------------------|
2---------8/10\8---6h8---6~~~~------------8/10\8---6h8p8-5-------------------|
3---5h7-----------------------------5h7--------------------------------------|
4----------------------------------------------------------------------------|
5----------------------------------------------------------------------------|
6----------------------------------------------------------------------------|


1---------------------------------------------------------------------------|
2---------------------------------------------------------------------------|
3---5/7-7\5--5\3---3/2---2h3p3---2/5~~~~~-----------------------------------|
4---------------------------------------------------------------------------|
5---------------------------------------------------------------------------|
6---------------------------------------------------------------------------|


intro to "The Deep End"

tuning:drop d
                           "repeat"                          "2nd time thru"
1----------------------------------------------------------||---------------|
2----------------------------------------------------------||---------------|
3----------------------------------------------------------||---------------|
4-------4------------4-------------4h5-4-------4h5--4--2---||--4h5--4--2\1--|
5--2-2-----2------2-----2----------------------------------||---------------|
6-------------2-----------2-----5----------0---------------||---------------|


thats it enjoy any questions my emial is:Cboyd140@aol.com
Comments