Crossfade - Cold Chords & Tabs

 

Cold Chords & Tabs

Crossfade Chords & Tabs

Version: 2 Type: Tab 0 ratings
1 star 2 stars 3 stars 4 stars 5 stars
comments

Cold Tab

   
-------------------------------------------------------------------------------
			     Cold - Crossfade
-------------------------------------------------------------------------------
Tabbed by:One of Your buddys
Email:corvettemast@netscape.net

Tuning:Tune to drop D

Verse 1: Looking back at me...
e|---------------------------------------------------------------------------|
B|---------------------------------------------------------------------------|
G|---------------------------------------------------------------------------|
D|0---0--0-0-0--0-0-0---10--10--10-10-10--7-7--------three times-------------|
A|0---0--0-0-0--0-0-0----8---8---8--8--8--7-7--------------------------------|
D|0---0--0-0-0--0-0-0----8---8---8--8--8--7-7--------------------------------|

e|---------------------------------------------------------------------------|
B|---------------------------------------------------------------------------|
G|---------------------------------------------------------------------------|
D|0---0--0-0-0--0-0-0---8-8-8-8-8-8-8-8-8-8-8-8-8----------------------------|
A|0---0--0-0-0--0-0-0---8-8-8-8-8-8-8-8-8-8-8-8-8----------------------------|
D|0---0--0-0-0--0-0-0---8-8-8-8-8-8-8-8-8-8-8-8-8----------------------------|
[ Tab from: http://www.guitartabs.cc/tabs/c/crossfade/cold_tab_ver_2.html ]
Verse 2   Repeat Twice
e|------------------------------------------------------------------------------------------|
B|------------------------------------------------------------------------------------------|
G|------------------------------------------------------------------------------------------|
D|8--8--8-----8--8--8--8---8-----8--10--10-10----10-10-10-10-10-10\---3-3/8-88888-10101010--|
A|8--8--8-----8--8--8--8---8-----8--10--10-10----10-10-10-10-10-10\---3-3/8-88888-10101010--|
D|8--10-10h12-12-10-10-10--10h12-10-12--12-12h14-14-12-10-10-10-10\---3-3/8-88888-10101010--|
                     . .

 Repeat Verse 1

 Then Repeat Verse 2

 Acoustic
e|------------------------------------------------------------------------------------------|
B|------------------------------------------------------------------------------------------|
G|------------------------------------------------------------------------------------------|
D|8--8--8-----8--8--8--8---8-----8--10--10-10----10-10-10-10-10-10\---3-3/8-88888-10101010--|
A|8--8--8-----8--8--8--8---8-----8--10--10-10----10-10-10-10-10-10\---3-3/8-88888-10101010--|
D|8--10-10h12-12-10-10-10--10h12-10-12--12-12h14-14-12-10-10-10-10\---3-3/8-88888-10101010--|
                     . .
 Solo
e|---------------------------------------------------------------------------|
B|-----10-8-6-8-6----------10-8-6-8-5---5-5h6-6-3-1-2-2-3-2-3-0-3-3-5-3-5-5--|
G|-5-7----------------5-7----------------------------------------------------|
D|---------------------------------------------------------------------------|
A|---------------------------------------------------------------------------|
D|---------------------------------------------------------------------------|

 Repeat Verse 2  Do 4 Times

That's it you should have it down!

| /  slide up
| \  slide down
| h  hammer-on
| p  pull-off
| ~  vibrato
| +  harmonic
| x  Mute note
===============================================================================
Comments