Crossfade - Cold (acoustic) Chords & Tabs

 

Cold (acoustic) Chords & Tabs

Crossfade Chords & Tabs

Version: 1 Type: Tab 0 ratings
1 star 2 stars 3 stars 4 stars 5 stars
comments

Cold (acoustic) Tab

Crossfade--"Cold" (Acoustic version)
Send remarks to: Numberone_Marine@yahoo.com

Ok, I'm Pretty sure this is correct, if not, it's pretty damn close, add to or take away
from it what you will. But this is what I think sounds right. Thid doesnt have the
correct strumming patterns but is pretty lined up with the lyrics. This is the tab for a
local radio version(not the recorded acoustic version) I heard a while back. and its
great. Email me for details.

Tuning:(Drop "D")DADGBE

Intro:(no singing)
e|----------------------------------------------------------------|
B|----------------------------------------------------------------|
G|----------------------------------------------------------------|
D|-7h9---9-9-9-9-----5~~~---5-------7h9---9-9-9-9-----5~~~--------|
A|-7-----7-7-7-7-----3~~~---2-------7-----7-7-7-7-----3~~~--------|
D|-7-----7-7-7-7-----3~~~---2-------7-----7-7-7-7-----3~~~--------|

Verse1:(singin begins)
  Looking back at (m e) I see  that i never really got it right! 
e|----------------(---)-------------------------------------------|
B|----------------(---)-------------------------------------------|
G|----------------(---)-------------------------------------------|
D|----------------(7h9)---9--9--9-------------------------5~~~~---|
A|----------------(7--)---7--7--7-------------------------3~~~~---|
D|----------------(7--)---7--7--7-------------------------3~~~~---|
 
  I never stopped to think of you!
e|----------------------------------------------------------------|
B|----------------------------------------------------------------|
G|----------------------------------------------------------------|
D|--------------------5-------------------------------------------|
A|--------------------2-------------------------------------------|
D|--------------------2-------------------------------------------|

  I'm always wrapped up in things I cannot win!
e|--------------------------------------------------------------|
B|--------------------------------------------------------------|
G|--------------------------------------------------------------|
D|-7h9---9--9--9---------------------5---5---5---5-------5------|
A|-7-----7--7--7---------------------3---3---3---3-------2------|
D|-7-----7--7--7---------------------3---3---3---3-------2------|

  You are the antidote that gets me by
e|---------------------------------------------------------------|
B|---------------------------------------------------------------|
G|---------------------------------------------------------------|
D|--9---9---9---9---9---9---9---9---9---9-------5---5------------|
A|--7---7---7---7---7---7---7---7---7---7-------3---3------------|
D|--7---7---7---7---7---7---7---7---7---7-------3---3------------|

  Something strong like a drug that gets (m e)
e|---------------------------------------(---)-------------------|
B|---------------------------------------(---)-------------------|
G|---------------------------------------(---)-------------------|
D|--5---5---5---5---5---5---5---5---5----(-5-)-------------------|
A|--3---3---3---3---3---3---3---3---3----(-2-)-------------------|
D|--3---3---3---3---3---3---3---3---3----(-2-)-------------------|

  Hiiiiiiiiiiiiiiiiiiggggggggggggggghhhhhhhhhhh!!!!!!
e|---------------------------------------------------------------|
B|---------------------------------------------------------------|
G|---------------------------------------------------------------|
D|-9---9---9---9---9---9----5---5---5---5---5--------------------|
A|-7---7---7---7---7---7----3---3---3---3---3--------------------|
D|-7---7---7---7---7---7----3---3---3---3---3--------------------|

Chorus1:
  What I really meant to say is im sorry for the way I am.....
e|---------------------------------------------------------------|
B|---------------------------------------------------------------|
G|--------5--5--5--5--5------------7--7--7--7--7--7--7--7--------|
D|--------3--3--3--3--3--9--9--9---5--5--5--5--5--5--5--5--------|
A|--------3--3--3--3--3--7--7--7---5--5--5--5--5--5--5--5--------|
D|--------3--3--3--3--3--7--7--7---5--5--5--5--5--5--5--5--------|

  I never meant to be so cold, (I never meant to be so cold)
e|---------------------------------------------------------------|
B|---------------------------------------------------------------|
G|-5--5-------------------7-----7--7--7--7--7--7--7--------------|
D|-3--3---9--9--9--9--9---5-----5--5--5--5--5--5--5--------------|
A|-3--3---7--7--7--7--7---5-----5--5--5--5--5--5--5--------------|
D|-3--3---7--7--7--7--7---5-----5--5--5--5--5--5--5--------------|

  What I really meant to say is im sorry for the way I am.....
e|---------------------------------------------------------------|
B|---------------------------------------------------------------|
G|--------5--5--5--5--5------------7--7--7--7--7--7--7--7--------|
D|--------3--3--3--3--3--9--9--9---5--5--5--5--5--5--5--5--------|
A|--------3--3--3--3--3--7--7--7---5--5--5--5--5--5--5--5--------|
D|--------3--3--3--3--3--7--7--7---5--5--5--5--5--5--5--5--------|

  I never meant to be so cold, (I never meant to be SO!!!)
e|---------------------------------------------------------------|
B|---------------------------------------------------------------|
G|-5--5-------------------7-----7--7--7--7--7--7--7--------------|
D|-3--3---9--9--9--9--9---5-----5--5--5--5--5--5--5--------------|
A|-3--3---7--7--7--7--7---5-----5--5--5--5--5--5--5--------------|
D|-3--3---7--7--7--7--7---5-----5--5--5--5--5--5--5--------------|

Verse2:
  Cold! To you I'm sorry about all the lies.
e|---------------------------------------------------------------|
B|---------------------------------------------------------------|
G|---------------------------------------------------------------|
D|-9---9---9---9---9---9---9---9---9----5~~~---------------------|
A|-7---7---7---7---7---7---7---7---7----3~~~---------------------|
D|-7---7---7---7---7---7---7---7---7----3~~~---------------------|

  Maybe in a different light.
e|---------------------------------------------------------------|
B|---------------------------------------------------------------|
G|---------------------------------------------------------------|
D|------------5---------------9---9---9--------------------------|
A|------------2---------------7---7---7--------------------------|
D|------------2---------------7---7---7--------------------------|
  
  You could see me stand on my own again!
e|---------------------------------------------------------------|
B|---------------------------------------------------------------|
G|---------------------------------------------------------------|
D|-9---9---9---9---9-----------5---5---5---5---------------------|
A|-7---7---7---7---7-----------3---3---3---3---------------------|
D|-7---7---7---7---7-----------3---3---3---3---------------------|

  Cause now I can see!
e|---------------------------------------------------------------|
B|---------------------------------------------------------------|
G|---------------------------------------------------------------|
D|---------------5--------9---9----------------------------------|
A|---------------5--------7---7----------------------------------|
D|---------------2--------7---7----------------------------------|

  You were the antidote that got me by
e|---------------------------------------------------------------|
B|---------------------------------------------------------------|
G|---------------------------------------------------------------|
D|-9---9---9---9---9---9---9---9---9--------5---5----------------|
A|-7---7---7---7---7---7---7---7---7--------3---3----------------|
D|-7---7---7---7---7---7---7---7---7--------3---3----------------|
 
  Something strong like a drug that got me....
e|---------------------------------------------------------------|
B|---------------------------------------------------------------|
G|---------------------------------------------------------------|
D|-5---5---5---5---5---5---5---5---5-----5------9--9-------------|
A|-3---3---3---3---3---3---3---3---3-----2------7--7-------------|
D|-3---3---3---3---3---3---3---3---3-----2------7--7-------------|

  Hiiiiiiiiiiiiiiiiiiggggggggggggggghhhhhhhhhhh!!!!!!
e|---------------------------------------------------------------|
B|---------------------------------------------------------------|
G|---------------------------------------------------------------|
D|-9---9---9---9---9---9----5---5---5---5---5--------------------|
A|-7---7---7---7---7---7----3---3---3---3---3--------------------|
D|-7---7---7---7---7---7----3---3---3---3---3--------------------|
[ Tab from: http://www.guitartabs.cc/tabs/c/crossfade/cold_acoustic_tab.html ]
Chorus2:
  What I really meant to say is im sorry for the way I am.....
e|---------------------------------------------------------------|
B|---------------------------------------------------------------|
G|--------5--5--5--5--5------------7--7--7--7--7--7--7--7--------|
D|--------3--3--3--3--3--9--9--9---5--5--5--5--5--5--5--5--------|
A|--------3--3--3--3--3--7--7--7---5--5--5--5--5--5--5--5--------|
D|--------3--3--3--3--3--7--7--7---5--5--5--5--5--5--5--5--------|

  I never meant to be so cold, (I never meant to be so cold)
e|---------------------------------------------------------------|
B|---------------------------------------------------------------|
G|-5--5-------------------7-----7--7--7--7--7--7--7--------------|
D|-3--3---9--9--9--9--9---5-----5--5--5--5--5--5--5--------------|
A|-3--3---7--7--7--7--7---5-----5--5--5--5--5--5--5--------------|
D|-3--3---7--7--7--7--7---5-----5--5--5--5--5--5--5--------------|

  What I really meant to say is im sorry for the way I am.....
e|---------------------------------------------------------------|
B|---------------------------------------------------------------|
G|--------5--5--5--5--5------------7--7--7--7--7--7--7--7--------|
D|--------3--3--3--3--3--9--9--9---5--5--5--5--5--5--5--5--------|
A|--------3--3--3--3--3--7--7--7---5--5--5--5--5--5--5--5--------|
D|--------3--3--3--3--3--7--7--7---5--5--5--5--5--5--5--5--------|

  I never meant to be so cold, (I never meant to be so coooold)
e|---------------------------------------------------------------|
B|---------------------------------------------------------------|
G|-5--5-------------------7-----7--7--7--7--7--7--7--------------|
D|-3--3---9--9--9--9--9---5-----5--5--5--5--5--5--5--------------|
A|-3--3---7--7--7--7--7---5-----5--5--5--5--5--5--5--------------|
D|-3--3---7--7--7--7--7---5-----5--5--5--5--5--5--5--------------|

Bridge:(breakdown gets soft)
                              (never meant to be) 
e|---------------------------------------------------------------|
B|---------------------------------------------------------------|
G|-5-5-5-5-------------7-7-7-7-7-7-7-7-7-7-7-7-7-----5-5---------|
D|-3-3-3-3---9-9-9-9---5-5-5-5-5-5-5-5-5-5-5-5-5-----3-3---------|
A|-3-3-3-3---7-7-7-7---5-5-5-5-5-5-5-5-5-5-5-5-5-----3-3---------|
D|-3-3-3-3---7-7-7-7---5-5-5-5-5-5-5-5-5-5-5-5-5-----3-3---------|
  
  Sooooooooo   coold
e|---------------------------------------------------------------|
B|---------------------------------------------------------------|
G|-5-5---------7-7-7---------------------------------------------|
D|-3-3--9-9----5-5-5---------------------------------------------|
A|-3-3--7-7----5-5-5---------------------------------------------|
D|-3-3--7-7----5-5-5---------------------------------------------|

Interlude: 
  OOOOOOO0000oo00ooooo00ooo000ooOOOOOOOOOOOOOOOOOOoohhhhhhh
e|---------------------------------------------------------------|
B|---------------------------------------------------------------|
G|---5--5--5--5------------------7--7--7--7----------------------|
D|---3--3--3--3----9--9--9--9----5--5--5--5----------------------|
A|---3--3--3--3----7--7--7--7----5--5--5--5----------------------|
D|---3--3--3--3----7--7--7--7----5--5--5--5----------------------|

  OOOOOOO0000oo00ooooo00ooo000ooOOOOOOaaaaaaaaaaaaaaahhhhhhh
e|---------------------------------------------------------------|
B|---------------------------------------------------------------|
G|---5--5--5--5------------------7--7--7--7----------5-5---------|
D|---3--3--3--3----9--9--9--9----5--5--5--5----------3-3---------|
A|---3--3--3--3----7--7--7--7----5--5--5--5----------3-3---------|
D|---3--3--3--3----7--7--7--7----5--5--5--5----------3-3---------|
 
  I never really wanted you to see 
e|---------------------------------------------------------------|
B|---------------------------------------------------------------|
G|-5--5------------------------7--7------------------------------|
D|-3--3-----9--9--9--9--9--9---5--5------------------------------|
A|-3--3-----7--7--7--7--7--7---5--5------------------------------|
D|-3--3-----7--7--7--7--7--7---5--5------------------------------|

  The screwed up side of me that I keep
e|---------------------------------------------------------------|
B|---------------------------------------------------------------|
G|-7---7---7---7---7---7---7---7---7------5--5-------------------|
D|-5---5---5---5---5---5---5---5---5------3--3-------------------|
A|-5---5---5---5---5---5---5---5---5------3--3-------------------|
D|-5---5---5---5---5---5---5---5---5------3--3-------------------|

  Locked inside of me soo deep
e|---------------------------------------------------------------|
B|---------------------------------------------------------------|
G|-5-5-5-------------------7-7-7---------------------------------|
D|-3-3-3----9-9-9-9-9-9----5-5-5---------------------------------|
A|-3-3-3----7-7-7-7-7-7----5-5-5---------------------------------|
D|-3-3-3----7-7-7-7-7-7----5-5-5---------------------------------|

  It always seem to get to me
e|---------------------------------------------------------------|
B|---------------------------------------------------------------|
G|-7---7---7---7---7---7---7------5------------------------------|
D|-5---5---5---5---5---5---5------3------------------------------|
A|-5---5---5---5---5---5---5------3------------------------------|
D|-5---5---5---5---5---5---5------3------------------------------|

  I never really  wanted you to go 
e|---------------------------------------------------------------|
B|---------------------------------------------------------------|
G|-5--5--5--5-------------------7--7--7--------------------------|
D|-3--3--3--3---9--9--9--9--9---5--5--5--------------------------|
A|-3--3--3--3---7--7--7--7--7---5--5--5--------------------------|
D|-3--3--3--3---7--7--7--7--7---5--5--5--------------------------|

  So many things you should have known
e|---------------------------------------------------------------|
B|---------------------------------------------------------------|
G|-7---7---7---7---7---7---7--------5--5-------------------------|
D|-5---5---5---5---5---5---5--------3--3-------------------------|
A|-5---5---5---5---5---5---5--------3--3-------------------------|
D|-5---5---5---5---5---5---5--------3--3-------------------------|

  I guess for me theres just no hope.
e|---------------------------------------------------------------|
B|---------------------------------------------------------------|
G|-5--5--5-----------------------7--7----------------------------|
D|-3--3--3----9--9--9--9--9------5--5----------------------------|
A|-3--3--3----7--7--7--7--7------5--5----------------------------|
D|-3--3--3----7--7--7--7--7------5--5----------------------------|

  I never meant to be so (fades into chorus)
e|---------------------------------------------------------------|
B|---------------------------------------------------------------|
G|-7---7---7---7---7---------------------------------------------|
D|-5---5---5---5---5---------------------------------------------|
A|-5---5---5---5---5---------------------------------------------|
D|-5---5---5---5---5---------------------------------------------|

Chorus3:
What I really meant to say is im sorry for the way I am.....
e|---------------------------------------------------------------|
B|---------------------------------------------------------------|
G|--------5--5--5--5--5------------7--7--7--7--7--7--7--7--------|
D|--------3--3--3--3--3--9--9--9---5--5--5--5--5--5--5--5--------|
A|--------3--3--3--3--3--7--7--7---5--5--5--5--5--5--5--5--------|
D|--------3--3--3--3--3--7--7--7---5--5--5--5--5--5--5--5--------|

  I never meant to be so cold, (I never meant to be so cold)
e|---------------------------------------------------------------|
B|---------------------------------------------------------------|
G|-5--5-------------------7-----7--7--7--7--7--7--7--------------|
D|-3--3---9--9--9--9--9---5-----5--5--5--5--5--5--5--------------|
A|-3--3---7--7--7--7--7---5-----5--5--5--5--5--5--5--------------|
D|-3--3---7--7--7--7--7---5-----5--5--5--5--5--5--5--------------|

  What I really meant to say is im sorry for the way I am.....
e|---------------------------------------------------------------|
B|---------------------------------------------------------------|
G|--------5--5--5--5--5------------7--7--7--7--7--7--7--7--------|
D|--------3--3--3--3--3--9--9--9---5--5--5--5--5--5--5--5--------|
A|--------3--3--3--3--3--7--7--7---5--5--5--5--5--5--5--5--------|
D|--------3--3--3--3--3--7--7--7---5--5--5--5--5--5--5--5--------|

  I never meant to be so cold, (I never meant to be so coooold)
e|---------------------------------------------------------------|
B|---------------------------------------------------------------|
G|-5--5-------------------7-----7--7--7--7--7--7--7--------------|
D|-3--3---9--9--9--9--9---5-----5--5--5--5--5--5--5----9---------|
A|-3--3---7--7--7--7--7---5-----5--5--5--5--5--5--5----7---------|
D|-3--3---7--7--7--7--7---5-----5--5--5--5--5--5--5----7---------|
Comments