Crossbreed - Painted Red Chords & Tabs

 

Painted Red Chords & Tabs

Crossbreed Chords & Tabs

Version: 1 Type: Tab 0 ratings
1 star 2 stars 3 stars 4 stars 5 stars
comments

Painted Red Tab

INTRO
-----------------7----------------------8-7------|
--5-5-5-5-5/10-8---------5-5-5-5-5/10-8----------|
-------------------------------------------------|
-------------------------------------------------|
-------------------------------------------------|
-------------------------------------------------|


--------------------7-----------------|
----5-5-5-5-5/10-8------5-5-5-5-5/10--|
--------------------------------------|
--------------------------------------|
--------------------------------------|
--------------------------------------|

CHORUS
--------------------------------------------------|   x4
---------------------6--6--6---5--5---6--6---5----|
---2--2--2--2--2-----x--x--x---x--x---x--x---x----|
---x--x--x--x--x-----3--3--3---2--2---3--3---2----|
---0--0--0--0--0----------------------------------|
--------------------------------------------------|

VERSE 1                        x2
---------------------------------|
---------------------------------|
--2-2-2-2-2-2-2-2/5-5-5-4-0-0----|
---------------------------------|
---------------------------------|
---------------------------------|

---------------------------------|
---------------------------------|
--2-2-2-2-2-2-2-2/5-5-5-4-4/7-7--|
---------------------------------|
---------------------------------|
---------------------------------|

---------------------------------|
---------------------------------|
--2-2-2-2-2-2-2-2/5-5-5-4-0-0----|
---------------------------------|
---------------------------------|
---------------------------------|

VERSE 2
-----------------------------------|
-----------------------------------|
--2-2-5-2-5-2-5-2-4-2-4-2-0-2-0-2--|
-----------------------------------|
-----------------------------------|
-----------------------------------|

-----------------------------------|
-----------------------------------|
--2-2-5-2-5-2-5-2-4-2-4-2-5-7-5-7--|
-----------------------------------|
-----------------------------------|
-----------------------------------|
[ Tab from: http://www.guitartabs.cc/tabs/c/crossbreed/painted_red_tab.html ]
-----------------------------------|
-----------------------------------|
--2-2-5-2-5-2-5-2-4-2-4-2-0-2-0-2--|
-----------------------------------|
-----------------------------------|
-----------------------------------|

-------------------------|
-------------------------|
--2-2-5-2-5-2-5-2-5/7----|
-------------------------|
-------------------------|
-------------------------|

-Chours-

PRE-VERSE
------5---5---5-------------------7-8---|
--5-5---5---5---5-10-10-12-13-8-8-------|
----------------------------------------|
----------------------------------------|
----------------------------------------|
----------------------------------------|

------5---5---5-------------------8-7---|
--5-5---5---5---5-10-10-12-13-8-8-------|
----------------------------------------|
----------------------------------------|
----------------------------------------|
----------------------------------------|

Pre-Verse again

-Intro-  except for on the last part do this...
-----------------8-7----|
--5-5-5-5-5/10-8--------|
------------------------|
------------------------|
------------------------|
------------------------|

-Chorus x3-

then...
-------------------------------|
-------------------------------|
---2--2--2--2--2----5-5-4-0-2--|
---x--x--x--x--x---------------|
---0--0--0--0--0---------------|
-------------------------------|

BREAKDOWN
---------|            -------------|  x16
---------|            -------------|
--2--2---|            ---2--2--2---|
--x--x---|            ---x--x--x---|
--0--0---|            ---0--0--0---|
---------|            -------------|

--------------------------------|    x2
--------------------------------|
--2-2-2-2-2-2-2-2/5-5-5-4-0-0---|
--------------------------------|
--------------------------------|
--------------------------------|

-------------------5/8-8-10-----|
--------------------------------|
--2-2-2-2-2-2-2-2---------------|
--------------------------------|
--------------------------------|
--------------------------------|

-Chorus-

-Verse 2-

End on this note...
--------|
---5----|
--------|
--------|
--------|
--------|
Comments