Crosby Stills Nash And Young - Almost Cut My Hair Chords & Tabs

 

Almost Cut My Hair Chords & Tabs

Crosby Stills Nash And Young Chords & Tabs

Version: 1 Type: Tab 0 ratings
1 star 2 stars 3 stars 4 stars 5 stars
comments

Almost Cut My Hair Tab

   
-----------------------------------------------------------------------------
			     Almost Cut My Hair - David Crosby
-----------------------------------------------------------------------------
Tabbed by: Nate Cat
Email: Nateg1489@aol.com

Tuning:EADGBe

Intro:
e|--------8------------------8----10--8---------------------8-----|
B|10-8-10-------------5-8-10--------8--8--8-5-------------8---8---|
G|----------9-7-----5-------------------------5-----5-7-9---------|
D|--------------5-7-----------------------------5-7---------------|
A|----------------------------------------------------------------|
E|----------------------------------------------------------------|
[ Tab from: http://www.guitartabs.cc/tabs/c/crosby_stills_nash_and_young/almost_cut_my_hair_tab.html ]
Verse:
e|---------------------------|
B|---10----8----7--5h7p5-----|
G|----9----9----7------------|
D|---10----9----7------------|
A|-0-------------------------|
E|-------3----2--------------|

Chorus:
  C Em Am  F Em D7sus D
e|0--0--0--1--0--3----2-------------|
B|1--0--1--1--0--1----3-------------|
G|0--0--2--2--0--2----2-------------|
D|2--2--2--3--2--0----0-------------|
A|3--2--0--0--2---------------------|
E|---0--------0---------------------|

Solo 1: Just mess around with the scale from the intro (same with solos 2 and 3)

Song Structure:
Intro
Verse x4
Chorus
Solo 1
Verse x4
Chorus
Solo 2
Verse x2
Chorus
Solo 3

A couple people told me that there was wrong notes in the intro, so finally after 2 
I went through and fixed it up.  If there's anything else that you think is wrong or if you 
any questions, let me know.  This is a great song, so have fun playing it.
Comments