Crosby Stills Nash - 4 + 20 Chords & Tabs

 

4 + 20 Chords & Tabs

Crosby Stills Nash Chords & Tabs

Version: 1 Type: Tab 0 ratings
1 star 2 stars 3 stars 4 stars 5 stars
comments

4 + 20 Tab

#----------------------------------PLEASE NOTE---------------------------------#
#This file is the author's own work and represents their interpretation of the #
#song. You may only use this file for private study, scholarship, or research. #
#------------------------------------------------------------------------------##
From uunet!spool.mu.edu!agate!ames!riacs!george.arc.nasa.gov!ben Tue Jun 30 15:58:47 PDT 1992
Article: 397 of alt.guitar.tab
Path: nevada.edu!uunet!spool.mu.edu!agate!ames!riacs!george.arc.nasa.gov!ben
From: ben@neti.arc.nasa.gov (Ben Chang)
Newsgroups: alt.guitar.tab
Subject: Tab: 4+20
Message-ID: 
Date: 29 Jun 92 19:29:28 GMT
Article-I.D.: riacs.1992Jun29.192928.13441
Sender: news@riacs.edu
Reply-To: ben@george.arc.nasa.gov
Followup-To: alt.guitar.tab
Organization: NASA Ames
Lines: 133


               4 + 20

     Notes:

     In a video I saw Stills play this using just his thumb and index finger;
     with the thumb striking the 4th and 6th strings and the index finger
     everywhere else.

     Structure of the tune:

1 - Intro
2 - Verse
Repeat 1
Repeat 2
Repeat 1
Repeat 2

     I have tried to be as accurate as possible with respect to the rhythm bars
     (the notes between the bars being struck on the up beat), no guarantees.

     Two variations of  are:

|--------4--------------||--------------4-----------|
|--2--0--------5--------||--2--0--5--0-----5--------|
     |--------------------0--||-----------------------0--|
|-----------------0-----||--------------------------|
|-----------------------||--------------------------|
|--0--------0-----------||--0-----------0-----0-----|
   |__|_____|_____|   |_____|_____|_____|


Have fun,

Ben


----====----====----====----====----====----====----====----====----====----====
NOTATION:
!  - Vibrato.
// - Pick 1st note and slide to 2nd note.
----====----====----====----====----====----====----====----====----====----====


Intro:
      E |----------7--------------|-----5--------------|
      B |----------------9--------|-----------7--------|
      E |----------------------0--|-----------------0--|
      E |-------------------0-----|--------------0-----|
      B |-------------------------|--------------------|
      E |-------0-----0-----------|--0-----0-----------|
|__|__|_____|     |__|__|_____|
[ Tab from: http://www.guitartabs.cc/tabs/c/crosby_stills_nash/4_20_tab.html ]
|-------4-----------------|-----------4--------------|
|-------------------5-----|--2--0-----------5--------|
|-------------0-----------|-----------------------0--|
|----------0--------------|--------------------0-----|
|-------------------------|--------------------------|
|-------0--------0-----0--|--0-----0-----0-----------|
|__|_____|_____|     |_____|_____|_____|


Verse:
||-------7-----------------|    |--5-----------------|
||-------------------9-----|    |--------------7-----|
   ||o------------0-----------|     |--------0-----------|
||o---------0--------------|    |-----0--------------|
||-------------------------|    |--------------------|
||-------0--------0-----0--|    |--0--------0-----0--|
 |__|_____|_____|       |__|_____|_____|

|-------4-----------------|   |-----------4--------------||
|-------------------5-----|   |--2--0-----------5--------||
   |-------------0-----------|     |-----------------------0-o|| (x2)
|----------0--------------|   |--------------------0----o||
|-------------------------|   |--------------------------||
|-------0--------0-----0--|   |--0-----0-----0-----------||
|__|_____|_____|      |_____|_____|_____|

||-------------------0-----|    |--------------0--------|
||-------0-----------------|    |--0--------------------|
   ||o------------3-----------|     |--------5-----------0--|
||o---------0--------------|    |-----0-----------0-----|
||-------------------------|    |-----------------------|
||-------3--------3-----3--|    |--5--------5-----------|
 |__|_____|_____|       |__|_____|_____|

|-------10!-------10!----------------|---10!-------10!-----------||
|------------12!----------12!--------|--------12!----------------||
   |---------------------------------0--|------------------------0-o|| (x2)
|------------------------------0-----|---------------------0----o||
|------------------------------------|---------------------------||
|--------0-------------0-------------|----0-------------0--------||
 |____|________|_______|  |____|________|__|

|-----------10!---|
|-----------------|
   |-----------------|
|-----------------|
|-----------------|
|--------0--------|
 ||
 \______/ (4 beats)

 

-- 
ivegotacarthatdontliketrafficandaguitarthathatesmyneighborsivegotatelevisionset
Ben Chang                       | Internet: ben@george.arc.nasa.gov
|
|
youknowitdontlikecommercialsmyshoesdontlikethecityigotshoesthatdontlikethecity
Comments