Croce Jim - Time In A Bottle (accurate) Chords & Tabs

 

Time In A Bottle (accurate) Chords & Tabs

Croce Jim Chords & Tabs

Version: 1 Type: Tab 2 ratings
1 star 2 stars 3 stars 4 stars 5 stars
comments

Time In A Bottle (accurate) Tab

song: time in a bottle 
artist: Jim Croce
tabbed by:Joshua A. Abella (Josh_TGP5@yahoo.com)

this tab is 100 percent accurate. i studied the song when i was in high school, but i 
forgot how to play it for 5 years 'cos i lost my tab... at last, after long hours of 
fiddling and doses of caffeine, here it is! i dedicate this song to my dad who kept 
on insisting that i find another tablature of this Jim croce classic after i played 
him the intro... i disobeyed him and let my worn-out mind and fingers do the studying...
and also to baby shane, anak ng cuz ko...hope he'll learn how to play the guitar when he 
grows up...  


capo on 5th fret

FIG 1 and FIG 2

intro

e|----5---5---5---4---4---4---3---3---3---2---2---2-----------
B|--5---5---5---5---5---5---5---5---5---5---5---5---5---------
G|------------------------------------------------------------
D|------------------------------------------------------------
A|------------------------------------------------------------
E|------------------------------------------------------------

                               FIG 2

e|----1---1---1---1---1----    -0---2---4---4/7--5--4~ 
B|--3---0---1---3---1---0--    ----------------------- 
G|-------------------------    -1---2---4---4/7--5--4~ 
D|-------------------------    -----------------------
A|-------------------------    -----------------------
E|-------------------------    -----------------------


FIG 3 and FIG 2 (3x)
FIG 3 and FIG 4

verse
[ Tab from: http://www.guitartabs.cc/tabs/c/croce_jim/time_in_a_bottle_accurate_tab.html ]
e|---------0------------0------------0-------------0------
B|-------1---1--------1---1--------1---1---------1---1----
G|-----2-------2----2-------2----2-------2-----2-------2--
D|---2----------------------------------------------------
A|--------------------------------------------------------
E|----------------4-----------3-------------2-------------

e|---------0------------0--------
B|-------1---1-------1-----1-----
G|-----2-------2---2---------2---
D|-------------------------------
A|-------------------------------
E|--1------------1---------------
FIG 4

e|---0---2---4----0h2--0~ ------------------------
B|------------------------------------------------
G|---1---2---4----2----2~ ------------------------
D|------------------------------------------------
A|------------------------------------------------
E|------------------------------------------------
2. you...
3.you...

FIG 5 (2x)

Chorus

e|--------------------------------------------------------
B|---------2-----------2-----------2-----------2----------
G|-------2---2-------1---1-------0---0-------0---0--------
D|-----2-------2---2-------2---2-------2---2-------2------
A|---0-----------0-----------0-----------0----------------
E|--------------------------------------------------------

e|---------------------------------------------------------
B|---------------------------------------------------------
G|------2---2--------2---2--------2---2------1--2--4-------
D|----0---0---0----0---0---0----0---0---0----0--0--0-------
A|--0------------4------------2----------------------------
E|---------------------------------------------------------
once you find them...
through time with...

Intro
FIG 3 and FIG 4
Chorus

FIG 6 (3x) and Am

Outtro


e|-------------------------      ---0~ --------------
B|------0---0h1------------      ---1~ --------------
G|----2---2-----2----------      ---2~ --------------
D|--2----------------------      ---2~ --------------
A|------------------0------      --------------------
E|----------------0--------      --------------------


December 3, 2005
5:27 PM 
Comments