Croce Jim - Photographs And Memories Chords & Tabs

 

Photographs And Memories Chords & Tabs

Croce Jim Chords & Tabs

Version: 1 Type: Tab 1 rating
1 star 2 stars 3 stars 4 stars 5 stars
comments

Photographs And Memories Tab

Title: Photographs and Memories
Artist: Jim Croce
Tabbed by Steven Jaranilla (sjvhynce@yahoo.com)

Intro & Verses

E--------2-3-2---------------0------------|
B--------------0-------------0------------|
G-----0----------0---------0-----------0--|
D------------------------2------2-0h2-----|
A----------------------3------------------|
e--3--------------------------------------|


Refrain
[ Tab from: http://www.guitartabs.cc/tabs/c/croce_jim/photographs_and_memories_tab.html ]
E-----------0-----------2---------0-------|
B-----------1-----------3---------0-------|
G--------0------------2-------------------|
D-----2-------------4----------2----------|
A--0--------------2----------2-------2\1--|
e--------------------------0--------------|


E-----------0------------------2--3--2----|
B-----------1-------1----------3--3--3--3-|
G--------0----------0--------2------------|
D-----2----------2-----2---0--------------|
A--0--------------------------------------|
e-----------------------------------------|

It's very easy and a nice song too!


Comments