Cro-mags - We Gotta Know Chords & Tabs

 

We Gotta Know Chords & Tabs

Cro-mags Chords & Tabs

Version: 1 Type: Bass Tab 0 ratings
1 star 2 stars 3 stars 4 stars 5 stars
comments

We Gotta Know Bass Tab

Song: We Gotta Know
Artist: Cro-Mags
Album: Age of Quarrel
Tabbed by R. Camacho (symptom7@excite.com) 


Intro        (Play 2X)        (Play Whole Intro 5X)
G[--------------------]---------------------------]
D[--------------------]---------------------------]
A{--------------------]-10--9--77-(7)-(7)---------]
E{-2-(2)-3-(3)-(3)----]---------------------------]

 Verses            (Play 7X)
G[-------------------------]-----------------------]
D[-------------------------]-----------------------]
A[-------------------------]-----------------3-2---]
E[-22-00-22-00-2-00-(0)-00-]-22-00-22-00-4-3-----3-]

 Chorus                          (Play 4X)
G[---------------------------------------]
D[---------------------------------------]
A[----------------------2-22222----------]
E[-4-444-4444-4444-4444---------3-33333--]

[ Tab from: http://www.guitartabs.cc/tabs/c/cro-mags/we_gotta_know_btab.html ]
 Verses            (Play 7X)
G[-------------------------]-----------------------------------]
D[-------------------------]-----------------------------------]
A[-------------------------]-------------3-2-----3-2-----3-2---]
E[-22-00-22-00-2-00-(0)-00-]-                  4-----3-4-----3-]

Bridge *(Play 16X)          (Play Bridge 2X)
G[-----------------------------------------]
D[----------------------------------44-6---]
A[----------------77-55----------66--------]
E[-5*-4*-5-555555-------5-4-4444---------4-]


G[---------------------------------]
D[---------------------------------]
A[-7\-------------------77-----5-5-]
E[----0000-0000-0000-00----000-----]

Gtr solo/end riff (Play 12X) 
G[-------------------------]-----------------------------]
D[-------------------------]-----------------------------]
A[-------------------------]---------------------3-2-----]
E[-22-00-22-00-2-00-(0)-00-]-3-00-4-00-3-00-4-00-----3-0-]

Comments