Criteria - Prevent The World Chords & Tabs

 

Prevent The World Chords & Tabs

Criteria Chords & Tabs

Version: 1 Type: Tab

Prevent The World Tab

Ok, I'm probably gonna get killed for this because I'm not much of a tabber (I've never
before), but I just want to get a Criteria tab in here so maybe some good tabbers will
some of their songs, since I haven't been able to find any Criteria tabs whatsoever on 
Internet.

Band / Artist: Criteria
Album: When We Break (2005)
Song: Prevent The World
Tuning: Drop D (DADGBe)

Intro (Distortion)
e|---------------------------------------------|
B|---------------------------------------------|
G|---------------------------------------------|
D|---9-9-9---------5---5--5-5-5-5--------------|
A|---9-9-9---------5---5--5-5-5-5--------------|
E|---9-9-9---------5---5--5-5-5-5--------------|

e|---------------------------------------------|
B|---------------------------------------------|
G|------7-----7-----7-----7--------------------|      (x3)
D|---0--7--0--7--0--7--0--7--0-0-0-------------|
A|---0--5--0--5--0--5--0--5--0-0-0-------------|
E|---0-----0-----0-----0-----0-0-0-------------|

e|---------------------------------------------|
B|---------------------------------------------|
G|---------------------------------------------|
D|---9-9-9---------5---5--5-5-5-5--------------|
A|---9-9-9---------5---5--5-5-5-5--------------|
E|---9-9-9---------5---5--5-5-5-5--------------|
[ Tab from: http://www.guitartabs.cc/tabs/c/criteria/prevent_the_world_tab.html ]
Verse (Clean)
e|---------------------------------------------|
B|---------------------------------------------|
G|---------------------------------7--7-7-7-7--|
D|--9--9----5--5-5-5-5-----0--0----7--7-7-7-7--|       (x4)
A|--9--9----5--5-5-5-5-----0--0----5--5-5-5-5--|
E|--9--9----5--5-5-5-5-----0--0----------------|

(Guitar does some kind of mute solo that I can't figure out)

e|------------------------------|
B|------------------------------|
G|--7-7-7-----------------------|
D|--7-7-7----5-5-5----9--9-9----|
A|--5-5-5----5-5-5----9--9-9----|
E|-----------5-5-5----9--9-9----|

Chorus (Distortion)
e|---------------------------------------------|
B|---------------------------------------------|
G|------7-----7-----7-----7--------------------|      (x3)
D|---0--7--0--7--0--7--0--7--0-0-0-------------|
A|---0--5--0--5--0--5--0--5--0-0-0-------------|
E|---0-----0-----0-----0-----0-0-0-------------|

e|---------------------------------------------|
B|---------------------------------------------|
G|---------------------------------------------|
D|---9-9-9---------5---5--5-5-5-5--------------|
A|---9-9-9---------5---5--5-5-5-5--------------|
E|---9-9-9---------5---5--5-5-5-5--------------|

(Repeat all this x2. And again Guitar 2 does another thing that I can't figure out
the Chorus)

That's pretty much all I fugerd out and I'm not even sure how legit you could say that
but again, I really just wanted to open a Criteria section.

Here's the vidio so you can listen to the song http://www.saddle-creek.com/whenwebreak/video.html

also if you don't know who Criteria is here's their websites

http://www.saddle-creek.com/whenwebreak/

http://www.criteriamusic.com/