Crimson Glory - Lady Of Winter Chords & Tabs

 

Lady Of Winter Chords & Tabs

Crimson Glory Chords & Tabs

Version: 1 Type: Tab 0 ratings
1 star 2 stars 3 stars 4 stars 5 stars
comments

Lady Of Winter Tab

Lady of Winter
Transcribed by Daniel Ocon

Rhy. 1


E------------------------------------------------------------------------------------|
B------------------------------------------------------------------------------------|
G-------------------------------------------------------------------------------sl---|
D----------------10----------9--------------9--------------7---------5---------5--7--|
A---0--0--0--0--------0--0------0--0--0--0-----0--0--0--0------0--0------0--0--------|
E------------------------------------------------------------------------------------|

E--------------------------------------------------------------------------------------|
B---------------------------------------------------------------------------------sl---|
G-----------------------------------------------------------------------h---p----7--9--|
D----------------10---------9---------------9--------------7----------9--10--9---------|
A---0--0--0--0--------0--0------0--0--0--0-----0--0--0--0------0--0--------------------|
E--------------------------------------------------------------------------------------|

Rhy. 2

E------------------------------------------------------------------------------------|
B------------------------------------------------------------------------------------|
G------------------------------------------------------------------------------------|
D-----------------------------------------------------------------------10--------9--|
A---0--0--0--0----0--0--0--0----0--0--0--0----0--0--0--0----0--0--0--0------0--0-----|
E------------------------------------------------------------------------------------|

E---------------------------------------------------------|
B----------------------------------------------------sl---|
G-----------------------------------------h----p----7--9--|
D---------------9--------------7---------9--10--9---------|
A---0--0--0--0-----0--0--0--0-----0--0--------------------|
E---------------------------------------------------------|

Rhy. 3
[ Tab from: http://www.guitartabs.cc/tabs/c/crimson_glory/lady_of_winter_tab.html ]
E----8--7-----7----12--10--8--7--8--7----7-----8--7-----12--|
B----------8----10---------------------8---10--------8------|
G-----------------------------------------------------------|
D-----------------------------------------------------------|
A-----------------------------------------------------------|
E-----------------------------------------------------------|

Rhy. 1
Rhy. 2
Rhy. 3

Rhy. 4

E-----------------------------------------------------------------------|
B-----------------------------------------------------------------------|
G-------------------------sl--------------------------------------------|
D---------------5--------5--9--5--------------10--------9---------7--2--|
A---0--0--0--0-----0--0-----------0--0--0--0------0--0-----0--0---------|
E-----------------------------------------------------------------------|

Rhy. 1

Rhy. 5

E------------------------------------------------------------------------------------------------|
B------------------------------------------------------------------------------------------------|
G-------9------9--9--9--9----------10------10---10---10---10------------11-----11--11---11---11--|
D------------------------------------------------------------------------------------------------|
A-------7------7--7--7--7-----------8-------8----8----8----8-------------9------9---9----9----9--|
E---0------0-----------------0--0-------0-----------------------0--0--0-----0--------------------|

E---------------------------------------------------------------------------|
B---------------------------------------------------------------------------|
G------------12--------9------9--9--9--9---------10------10---10---10---10--|
D---------------------------------------------------------------------------|
A------------10--------7------7--7--7--7----------8-------8----8----8----8--|
E----0--0----------0------0----------------0--0-------0---------------------|

E-------------------------------------------------------|
B-------------------------------------------------------|
G------------11-----11--11---11--11---------12--14--12--|
D-------------------------------------------------------|
A-------------9------9---9----9---9---------10--12--10--|
E-----0--0-------0--------------------0--0--------------|
Comments