Creedence Clearwater Revival - Someday Never Comes Chords & Tabs

 

Someday Never Comes Chords & Tabs

Creedence Clearwater Revival Chords & Tabs

Version: 1 Type: Bass Tab

Someday Never Comes Bass Tab

CCR  Someday Never Comes
Tabbed by: Mark Kabana

Tabbed this one out myself because the others seemed way off.
Any comments or suggestions? Email: ummeat@yahoo.com 

Intro/Verse 1 - 0:13
|-------|-------------------------------------|
|-------|-------------------------------------|
|---2---|----2-----------------2-----2---22---|
|-2-----|--2-------2---4---0------3-----------|  
					 
|---------------------------------------------|
|---------------------------------------------|
|----2-----------------2-----2---22-----------|
|--2-------2---4---0------2-------------------|  

Chorus 1  0:45	  2x
|------------------|--------------|
|------------------|----2---------|
|---------222222---|-4-----2----2-|  
|-222222-----------|--------------|

Verse 2  0:59
|--------------------------------------|
|--------------------------------------|
|----2-----------------2-----2---22----|
|--2-------2---4---0------3------------|  
					 
|--------------------------------------|
|--------------------------------------|
|-----2-----------------2-----2---22---|
|--24-------2---4---0------2-----------|

Chorus 2  1:28  2x
|------------------|---------------|
|------------------|----2----------|
|---------222222---|-4-----2----22-|  
|-222222-----------|---------------|


Verse 2  1:41
|---------------------------------------|
|---------------------------------------|
|-----2-----------------2-----2---22----|
|--02-------2---4---0------3------------|  
					 
|--------------------------------------|
|--------------------------------------|
|-----2-----------------2-----2---22---|
|--24-------2---4---0------2-----------|

[ Tab from: http://www.guitartabs.cc/tabs/c/creedence_clearwater_revival/someday_never_comes_btab.html ]
Chorus 3  2:10	  2x
|------------------|------------------|---------------------|
|------------------|----2-------------|----2--------5----5--|
|---------222222---|-4-----2----22---2|-4-----2---------7-5-|  
|-222222-----------|----------------4-|---------------------|


Verse 3  2:31

|-------2-----------------------------|
|----5-----3--------------------------|
|-3------------3-----3----33--33------|
|-----------------4---------------35--|

|-------2-----------------------------|
|----5-----3--------------------------|
|-3------------3-----3----333--------|
|-----------------3-------------------|

Chorus 4  2:59   
|-------------------|-------------------|-----------------|
|-------------------|-------------------|----3------------|
|---------333333----|---------3353535---|-5-----3----33---| 
|-3333335-------5---|-3333335-----------|-----------------|

|---------------------------
|----3----------------------
|-5-----3---33-----------------
|----------------------------

Outro  3:20		  3:27
|-----------------------|------------------------------|
|-----------------------|-----------7------------------|
|-3-5---55--3--33------3|--5---55--5----3---33---333---|
|--------------------35-|------------------------------|

3:34		     3:39	3:41
|------------------|----------|------------9-11/12-----|
|--5---55--555-5\|------5---|---------10---------10--|
|------------------|-3--33-3--|-5x55------------------|
|------------------|----------|------------------------|

3:46    	   3:48
|-----------------|-------12/14--12/14----|-------------------|
|-x1010---107107--|-12--14-----14-----14--|-x109/1099x9/10--|
|-----------------|-----------------------|-------------------|
|-----------------|-----------------------|-------------------|