Creedence Clearwater Revival - Looking Out My Back Door Chords & Tabs

 

Looking Out My Back Door Chords & Tabs

Creedence Clearwater Revival Chords & Tabs

Version: 1 Type: Bass Tab 0 ratings
1 star 2 stars 3 stars 4 stars 5 stars
comments

Looking Out My Back Door Bass Tab

   
-------------------------------------------------------------------------------
			     Lookin Out My Back Door - CCR
-------------------------------------------------------------------------------

Tabbed By : Jose
e-mail: josesanders2@yahoo.com

Tuning: DADG

Intro:
G|---------------------------------------------------------------------------|
D|---------------------------------------------------------------------------|
A|--1-----1---------------------------/6-6------------------1---1-3-5--------|
D|----3-3---3-3---5--0-0---5--0-0---1------8--8-8---3-3--5-------------------|

Verse riff 1:
G|---------------------------------------------------------------------------|
D|---------------------------------------------------------------------------|
A|--1-----1---------------------------/6-6-----------------------------------|
D|----3-3---3-3---5--0-0---5--0-0---1------8--8-8--3-3---3-3-3-5-7-----------|

Verse riff 2:
G|---------------------------------------------------------------------------|
D|---------------------------------------------------------------------------|
A|--1-----1---------------------------/6-6------------------1---1-3-5--------|
D|----3-3---3-3---5--0-0---5--0-0---1------8--8-8---3-3--5-------------------|
[ Tab from: http://www.guitartabs.cc/tabs/c/creedence_clearwater_revival/looking_out_my_back_door_btab.html ]
Chorus:
G|---------------------------------------------------------------------------|
D|---------------------------------------------------------------------------|
A|--------------6-6-6-6-1-1-1-1--1-1-1-1-------------------------------------|
D|--3-3-3-3-3-3--------------------------5-5-5-5-3-3-3-3---------------------|

After the break, everything is the same but up one step.

Play this little lead in:
G|---------|
D|---------|
A|--3-2-0--|
D|---------|

Then the chorus riff:
G|---------------------------------------------------------------------------|
D|---------------------------------------------------------------------------|
A|--------------8-8-8-8-3-3-3-3--3-3-3-3-------------------------------------|
D|-5-5-5-5-5-5---------------------------7-7-7-7-5-5-5-5---------------------|


Verse Riff 1:
G|---------------------------------------------------------------------------|
D|---------------------------------------------------------------------------|
A|--3-----3---------------------------/8-8-----------------------------------|
D|----5-5---5-5---7--2-2---7--2-2---3------10--10-10--5-5---5-5-5-7-9--------|

Verse riff 2, Much slower:
G|---------------------------------------------------------------------------|
D|---------------------------------------------------------------------------|
A|--3-----3---------------------------/8-8--------------------3---3-5-7------|
D|----5-5---5-5---7--2-2---7--2-2---3------10--10-10--5-5--7-----------------|


| /  slide up
| \  slide down
| h  hammer-on
| p  pull-off
| ~  vibrato
| +  harmonic
| x  Mute note
===============================================================================
Comments