Creedence Clearwater Revival - Long As I Can See The Light Chords & Tabs

 

Long As I Can See The Light Chords & Tabs

Creedence Clearwater Revival Chords & Tabs

Version: 2 Type: Bass Tab 0 ratings
1 star 2 stars 3 stars 4 stars 5 stars
comments

Long As I Can See The Light Bass Tab

                      Long as I can see the Light
      

By: Creedence Clearwater Revival

Tabbed By: Lee Spurrell
leespurrell@hotmail.com


    Intro (3x)                    Verse                                 
G-----------------------------------------------------------------------
D------------2-----2----------------------------------------------------
A---2-----2-----2-----2-----------2--2--2--0--------------2--2--2--0----
E---------------------------------------------2--2--2--0----------------
                                                                        

                                                                        
G-----------------------------------------------------------------------
D---------2-----2-------------------------------------------------------
A---2--2-----2-----2--2--2--0--------------2--2--2--0--------------2----
E------------------------------4--4--4--0--------------2--2--2--0-------
                                                                        

                                                                        
G-----------------------------------------------------------------------
D-----------------------------------------------------------------------
A---2--2--0-----------------------------------------------------2--2----
E------------2--2--2--0-----0--0--0--0--0--0--0--0--0--0--0--0----------
                                                                        

                                                                        
G-----------------------------------------------------------------------
D---------------------------------------2-----2-------------------------
A---2--0--------------2--2--2--0--2--2-----2-----2----------------------
E---------2--2--2--0----------------------------------------------------
                                                                        

    Chorus                                                              
G-----------------------------------------------------------------------
D---------------------------------------------2-----2-------------------
A---2--2--2--0--------------2--2--2--0--2--2-----2-----2----------------
E---------------2--2--2--0----------------------------------------------
                                                                        
[ Tab from: http://www.guitartabs.cc/tabs/c/creedence_clearwater_revival/long_as_i_can_see_the_light_btab_ver_2.html ]
    yeah........         yeah....                   yeah....            
G-----------------------------------------------------------------------
D---------2-----2-----------------2-----2-----------------2-----2-------
A---2--2-----2-----2--2-----2--2-----2-----2--2-----2--2-----2-----2----
E-----------------------------------------------------------------------
                                                                        

          oh yeah....                                                   
G-----------------------------------------------------------------------
D---------------2-----2-------------------------------------------------
A---2-----2--2-----2-----2--2-------------------------------------------
E-----------------------------------------------------------------------
                                                                        
>From here you just keep repeating the chorus




========================================================================
==                       TABLATURE EXPLANATION                        ==
========================================================================

----------                ----------                ----t---
----5h8--- Hammeron       ----(8)--- Ghost          ----6--- Tap
----------                ---------- Note           --------
----5p8--- Pulloff        ----------                --------

----------                ----------                -----p--
----5/8--- Slide Up       -----x---- Dead           -----7-- Pop
----------                ---------- Note           --s-----
----5\8--- Slide Down     ----------                --5----- Slap 

----------                ||------|| Repeat         --------
----5~~~-- Vibrato        ||*----*||                ---5^--- Bend
----------                ||*----*||                --------
----------                ||------||                --------

----------                ----------                --------
-4:------- Time           ----------                --------
-4:------- Signature      ----------                --------
----------                ----------                --------

Rhythm:
  w = whole note            W = dotted whole
  h = half note             H = dotted half
  q = quarter note          Q = dotted quarter
  e = eighth note           E = dotted eighth
  s = sixteenth note        S = dotted sixteenth
  t = 32nd note             T = dotted 32nd
  x = 64th note             X = dotted 64th
  ^ = triplet

========================================================================
==            Created with a demo version of BUCKET O' TAB            ==
==              tablature creation software for Windows               ==
==                  For more info email gse@his.com                   ==
========================================================================
Comments