Creedence Clearwater Revival - Hey Tonight Chords & Tabs

 

Hey Tonight Chords & Tabs

Creedence Clearwater Revival Chords & Tabs

Version: 1 Type: Tab 0 ratings
1 star 2 stars 3 stars 4 stars 5 stars
comments

Hey Tonight Tab

Guitar Intro: Hey Tonight

E-12--9------0-0---0--12--9------0-0---0--12--9------0-0---0-|
B-12----12-0----------12----12-0----------12----12-0---------|
G----------------9-------------------9-------------------9---|
D------------------------------------------------------------|
A------------------------------------------------------------|
E------------------------------------------------------------|

[ Tab from: http://www.guitartabs.cc/tabs/c/creedence_clearwater_revival/hey_tonight_tab.html ]
E----0---0---0---0---0---0---0------------------------------|
B-----------------------------------------------------------|
G-----------------------------------------------------------|
D--6---4---2---4---6---4---2---4----------------------------|
A-----------------------------------------------------------|
E-----------------------------------------------------------|

Solo

E-----0--0----0--0-----0---0---0---0---| (X2)
B---9-10--9s--5-----0-----------------|
G------------------------2---1---------|
D--------------------------------2-----|
A--------------------------------------|
E--------------------------------------|

I looked everywhere trying to find the intro to this song, so I decided to figure it out 
best I can. I think I have it pretty close, it's hard to hear with the distortion and 
strings. The first part of the intro sounds best if you just use a pick and not try to
pick the open strings with your finger. Feel free to contact me if you have another way
of this.
Comments