Creedence Clearwater Revival - Good Golly Miss Molly Chords & Tabs

 

Good Golly Miss Molly Chords & Tabs

Creedence Clearwater Revival Chords & Tabs

Version: 1 Type: Tab 1 rating
1 star 2 stars 3 stars 4 stars 5 stars
comments

Good Golly Miss Molly Tab

   
Good Golly Miss Molly 
  guitar tab
  by danilo andreoli 
             tex90@quipo.it

legend:
b=bending 
r=releasing
h=hammer on
p=pull off
/=slide

Main Riff: 
|---------------------------------------------------|
|---------------------------------------------------|
|---------------------------------------------------|
|------0-0----------0-0----------0-0----------0-0---|
|----2-----2------2-----2------2-----2------2-----2-|
|0-0----------0-0----------0-0----------0-0---------|

|---------------------------------------------------|
|---------------------------------------------------|
|------0-0----------0-0-----------------------------|
|----2-----2------2-----2--------0-0----------0-0---|
|0-0----------0-0--------------2-----2------2-----0-|
|--------------------------0-0----------0-0---------|

|------------------------------------------|
|------------------------------------------|
|------2-2----------0-0--------------------|
|----4-----4------2-----2--------0-0-------|
|2-2----------0-0--------------2-----2-----|
|--------------------------0-0---------0---|

Good Golly Miss Molly, 
|--5-h7p5------------------|
|--5-h7p5---8--5--8--------|
|--------------------------|
|--------------------------|
|--------------------------|
|--------------------------|

sure like to ball.
|--10---12-----------------|
|---------10---------------|
|-----------12-9--12--9----|
|--------------------------|
|--------------------------|
|--------------------------|

Good golly, Miss Molly, 
|--5-h7p5------------------|
|--5-h7p5---8--5--8--------|
|--------------------------|
|--------------------------|
|--------------------------|
|--------------------------|

sure like to ball.
|--10---12-----------------|
|---------10---------------|
|-----------12-9--12--9----|
|--------------------------|
|--------------------------|
|--------------------------|

When you're rockin' and a rollin' 
|--5-h7p5------------------|
|--5-h7p5---8--5--8--------|
|--------------------------|
|--------------------------|
|--------------------------|
|--------------------------|

can't hear your momma call.
|---------5---7---5--------|
|-5---8--------------8--5--|
|--------------------------|
|--------------------------|
|--------------------------|
|--------------------------|

            |From the early early mornin' 
drum solo ->|till the early early night 
            |You can see Miss Molly rockin'
            |at the house of blue lights. 
            |Good golly, Miss Molly, 
               |--5-h7p5------------------|
               |--5-h7p5---8--5--8--------|
	       |--------------------------|
	       |--------------------------|
	       |--------------------------|
	       |--------------------------|

sure like to ball.
|--10---12-----------------|
|---------10---------------|
|-----------12-9--12--9----|
|--------------------------|
|--------------------------|
|--------------------------|

When you're rockin' and a rollin' 
|--5-h7p5------------------|
|--5-h7p5---8--5--8--------|
|--------------------------|
|--------------------------|
|--------------------------|
|--------------------------|

can't hear your momma call.
|---------5---7---5--------|
|-5---8--------------8--5--|
|--------------------------|
|--------------------------|
|--------------------------|
|--------------------------|

            |Well, now momma, poppa told me: 
drum solo ->|"Son, you better watch your step."
            |If I knew my momma, poppa, 
            |have to watch my dad myself.
            |Good golly, Miss Molly, 
               |--5-h7p5------------------|
	       |--5-h7p5---8--5--8--------|
	       |--------------------------|
	       |--------------------------|
	       |--------------------------|

sure like to ball.
|--10---12-----------------|
|---------10---------------|
|-----------12-9--12--9----|
|--------------------------|
|--------------------------|
|--------------------------|

When you're rockin' and a rollin' 
|--5-h7p5------------------|
|--5-h7p5---8--5--8--------|
|--------------------------|
|--------------------------|
|--------------------------|
|--------------------------|

can't hear your momma call.

solo1:                  
|--------5---7/12------12-----12----12------12|
|5---8------------10h12--10h12--10h12--10h12--|
|---------------------------------------------|
|---------------------------------------------|
|---------------------------------------------|
|---------------------------------------------|

|------12-----12--12/17-|
|-10h12--10h12----------|
|-----------------------|
|-----------------------|
|-----------------------|
|-----------------------|

|--15h17-15h17-15h17-15h17-15h17-15h17--|
|---------------------------------------|
|---------------------------------------|
|---------------------------------------|
|---------------------------------------|
|---------------------------------------|

|-15------------------------------------------|
|-15-17-17--15--------------------------------|
|---------------1614---------14---15h16-1616--|
|-------------------171817--------------------|
|---------------------------------------------|
|---------------------------------------------|
[ Tab from: http://www.guitartabs.cc/tabs/c/creedence_clearwater_revival/good_golly_miss_molly_tab.html ]
|---------------------------------------------|
|-------------------------12------------------|
|14h15-1515--13h14-1414------14-12----12-14-12|
|----------------------------------14---------|
|---------------------------------------------|
|---------------------------------------------|

|---------------------------------------------|
|---------------------------------------------|
|--------12----12-14/16---14---12-14-12-------|
|-141214----14--------------------------14----|
|---------------------------------------------|
|---------------------------------------------|

|---------------15br-----------------15br-----|
|17-15-15h17-17-----17-17-15-17-15h17---------|
|---------------------------------------------|
|---------------------------------------------|
|---------------------------------------------|
|---------------------------------------------|

|-12-10-12-------12-----12--12---12-----------|
|-----------10h12-----12--12---12-------------|
|---------------------------------------------|
|---------------------------------------------|
|---------------------------------------------|
|---------------------------------------------|

           |I am going to the corner, 
drum solo->|gonna buy a diamond ring.
           |Would you pardon me if it's  
           |a nineteen carat golden thing. 
           |Good golly, Miss Molly,
             |--5-h7p5------------------|
             |--5-h7p5---8--5--8--------|
             |--------------------------|
             |--------------------------|
             |--------------------------|
             |--------------------------|

sure like to ball.
|--10---12-----------------|
|---------10---------------|
|-----------12-9--12--9----|
|--------------------------|
|--------------------------|
|--------------------------|

When you're rockin' and a rollin' 
|--5-h7p5------------------|
|--5-h7p5---8--5--8--------|
|--------------------------|
|--------------------------|
|--------------------------|
|--------------------------|

can't hear your momma call.

solo2:
|---------5---7/12-10b--12------12------12-|
|-5---8--------------------10h12---10h12---|
|------------------------------------------|
|------------------------------------------|
|------------------------------------------|
|------------------------------------------|

|-----12------12------12/17-17-------------|
|10h12---10h12---10h12--------17-15h17-17--|
|------------------------------------------|
|------------------------------------------|
|------------------------------------------|
|------------------------------------------|

|--15/19-15171519--15171519--15171519--|
|--------------------------------------|
|--------------------------------------|
|--------------------------------------|
|--------------------------------------|
|--------------------------------------|

|-151715171517/19--1715----15171517-19-|
|---------------------17---------------|
|--------------------------------------|
|--------------------------------------|
|--------------------------------------|
|--------------------------------------|

|-1715----15-------15--------15--------|
|-----17-----1715-----1715------1715---|
|---------------16--------16--------16-|
|--------------------------------------|
|--------------------------------------|
|--------------------------------------|

|-15--------15-------15----------------|
|----1715-----1715-15----12p10-----10--|
|--------16------16-------------1212---|
|--------------------------------------|
|--------------------------------------|
|--------------------------------------|

|-----12-12/17-1715--------------------|
|-10b---------------17-15--------------|
|-------------------------14-14h16-1616|
|--------------------------------------|
|--------------------------------------|
|--------------------------------------|

|--------------------|
|--------------------|
|16h14---------------|
|-----1714-17-----14-|
|--------------------|
|--------------------|

Good golly, Miss Molly, 
|--5-h7p5------------------|
|--5-h7p5---8--5--8--------|
|--------------------------|
|--------------------------|
|--------------------------|
|--------------------------|

sure like to ball.
|--10---12-----------------|
|---------10---------------|
|-----------12-9--12--9----|
|--------------------------|
|--------------------------|
|--------------------------|

Good golly, Miss Molly, 
|--5-h7p5------------------|
|--5-h7p5---8--5--8--------|
|--------------------------|
|--------------------------|
|--------------------------|
|--------------------------|

sure like to ball.
|--10---12-----------------|
|---------10---------------|
|-----------12-9--12--9----|
|--------------------------|
|--------------------------|
|--------------------------|

When you're rockin' and a rollin' 
|--5-h7p5------------------|
|--5-h7p5---8--5--8--------|
|--------------------------|
|--------------------------|
|--------------------------|
|--------------------------|

can't hear your momma call.
|-----5-7-5-----|
|-5-8-------8-5-|
|---------------|
|---------------|
|---------------|
|---------------| 

the end!!!!!!!!!!!!!!!!!!!!!!!!!!!!!!!!!!!!!!!!!!!!!!!!!!
p.s.=the solo1 and 2 are quite difficult so you have to 
listen to the song while you try to learn these.I hope you
enjoy my first tab...send me corrections and suggestions to
tex90@quipo.it
Comments