Creedence Clearwater Revival - Effigy Chords & Tabs

 

Effigy Chords & Tabs

Creedence Clearwater Revival Chords & Tabs

Version: 1 Type: Tab 0 ratings
1 star 2 stars 3 stars 4 stars 5 stars
comments

Effigy Tab

CCR - "Effigy"
Tabbed by: Edgar Vilchis (vilort@latinmail.com)
To Dave and Vero (I love you)

"Effigy" is a very beauty song

I think the intro is something like this:

e-|---------3---5---|-3---5---3---5---||
B-|-6-3-5-3---3---3-|---3---3---3---3-||
G-|-----------------|-----------------||
D-|-----------------|-----------------||
A-|-----------------|-----------------||
M-|-----------------|-----------------||

e-|---------3---5---|-3---5---3---5---||
B-|-6-3-5-3---3---3-|---3---3---3---3-||
G-|-----------------|-----------------||
D-|-----------------|-----------------||
A-|-----------------|-----------------||
M-|-----------------|-----------------||

e-|---------3---5---|-3---5---3---5---||
B-|-6-3-5-3---3---3-|---3---3---3---3-||
G-|-----------------|-----------------||
D-|-----------------|-----------------||
A-|-----------------|-----------------||
M-|-----------------|-----------------||
[ Tab from: http://www.guitartabs.cc/tabs/c/creedence_clearwater_revival/effigy_tab.html ]
e-|-3---5---2---4---|-2---4---2---4---||
B-|---3---3---2---2-|---2---2---2---2-||
G-|-----------------|-----------------||
D-|-----------------|-----------------||
A-|-----------------|-----------------||
M-|-----------------|-----------------||


e-|-2~--------------|---2---2---3~----||
B-|-----------------|---3---3---3~----||
G-|-----------------|---2---2---4~----||
D-|-----------------|---0---0---5~----||
A-|-----------------|-----------------||
M-|-----------------|-----------------||


I think the solo begins like next:
(I am working about this)

e-|------------------|------------------||
B-|------------------|------------------||
G-|-9f-9\7-7--5-7\-4-|-5-4-5-4-5-4-5--4~||
D-|------------------|------------------||
A-|------------------|------------------||
M-|------------------|------------------||

Questions, comments, corrections? Please send an e-mail to
vilort@latinmail.com

Thank u CREEDENCE!!!
Comments