Creedence Clearwater Revival - Down On The Corner Chords & Tabs

 

Down On The Corner Chords & Tabs

Creedence Clearwater Revival Chords & Tabs

Version: 5 Type: Tab 0 ratings
1 star 2 stars 3 stars 4 stars 5 stars
comments

Down On The Corner Tab

e|-----------------------------------------------------------------|
B|-----------------------------------------------------------------|
G|-----------------------------------------------------------------|
D|-----------------------------------------------------------------|
A|----3---------------3------3-----------------------2-----3----3--|
E|---------5-----3------------------5----3-----3-------------------|play twice
[ Tab from: http://www.guitartabs.cc/tabs/c/creedence_clearwater_revival/down_on_the_corner_tab_ver_5.html ]
e|-----------------------------------------------------------------------------------|
B|-----------------------------------------------------------------------------------|
G|-----------------------------------------------------------------------------------|
D|---3------------------3----3---------------------2-------5-------5-----------------|
A|--------5------3-----------------5---3----3----------------------------------------|
E|-----------------------------------------------------------------------------------|

e|----------------------------------------------------------------------------------|
B|----------------------------------------------------------------------------------|
G|----------------------------------------------------------------------------------|
D|----------------------------------------------------------------------------------|
A|------3---------------------3-------3--------------------------2------3--3--------|
E|-------------5-------3-----------------------5------3----3------------------------|
Comments