Creedence Clearwater Revival - Down On The Corner Chords & Tabs

 

Down On The Corner Chords & Tabs

Creedence Clearwater Revival Chords & Tabs

Version: 4 Type: Tab 0 ratings
1 star 2 stars 3 stars 4 stars 5 stars
comments

Down On The Corner Tab

E----------------------------------------------------------------
B----------------------------------------------------------------
G----------------------------------------------------------------
D----------------------------------------------------------------
A----3-----------3---3-------------------3---3-------------------
E--------5---3-----------5---3---3---5---------------------------

[ Tab from: http://www.guitartabs.cc/tabs/c/creedence_clearwater_revival/down_on_the_corner_tab_ver_4.html ]
E----------------------------------------------------------------
B----------------------------------------------------------------
G----------------------------------------------------------------
D----3-----------3---3---------------2---5---5-------------------
A--------5---3-----------5---3---3-------------------------------
E----------------------------------------------------------------


E----------------------------------------------------------------
B----------------------------------------------------------------
G----------------------------------------------------------------
D----------------------------------------------------------------
A----3-----------3---3-------------------3-----------------------
E--------5---3-----------5---3---3---5---------------------------
Comments