Creedence Clearwater Revival - Down On The Corner Chords & Tabs

 

Down On The Corner Chords & Tabs

Creedence Clearwater Revival Chords & Tabs

Version: 3 Type: Tab 0 ratings
1 star 2 stars 3 stars 4 stars 5 stars
comments

Down On The Corner Tab

Listen to song to get the timing.

E|----------|---------|
B|----------|---------|
G|----------|---------|
D|----------|---------|
A|-3-0-3-3-0|----2-3-3|
E|----3-----|-3-3-----| Repeat once
[ Tab from: http://www.guitartabs.cc/tabs/c/creedence_clearwater_revival/down_on_the_corner_tab_ver_3.html ]
E|----------|---------|-----------|----------|
B|----------|---------|-----------|----------|
G|----------|-----0-0-|-----------|----------|
D|-3-0-3-3-0|----2----|-----------|----------|
A|----3-----|-3-3-----|-3-0-3-3-0-|----2-3-3-|
E|----------|---------|----3------|-3-3------|
Comments