Creed - Wrong Way Chords & Tabs

 

Wrong Way Chords & Tabs

Creed Chords & Tabs

Version: 6 Type: Tab 0 ratings
1 star 2 stars 3 stars 4 stars 5 stars
comments

Wrong Way Tab

CREED
Wrong Way

INTRO. (x9)
|------------------------------------------------------------|
|------------------------------------------------------------|
|------------------------------------------------------------|
|---------0-0---------0-0-----3-3-0-----------0-0-----0----0-|
|-----6-6---------3h5---------------5-----3h5----------------|
|-0-0---------0-0---------0-0---------0-0----------3-----1---|

(x1)
|---------------------------------|
|---------------------------------|
|---------------------------------|
|---0---0---0---0---0---0---0---0-|
|-8---8---8---8---7---7---7---7---|
|---------------------------------|

CHORUS 
|----------------------|
|----------------------|
|--5----5-----4-----4--|
|--3----3-----2-----2--|
|--3----3-----2-----2--|
|--3----3-----2-----2--|

(x1)
|------------------------------------------------------------|
|------------------------------------------------------------|
|------------------------------------------------------------|
|---------0-0---------0-0-----3-3-0-----------0-0-----0----0-|
|-----6-6---------3h5---------------5-----3h5----------------|
|-0-0---------0-0---------0-0---------0-0----------3-----1---|

|----------------------|
|----------------------|
|--5----5-----4-----4--|
|--3----3-----2-----2--|
|--3----3-----2-----2--|
|--3----3-----2-----2--|

|------------------------------------------------------------|
|------------------------------------------------------------|
|------------------------------------------------------------|
|---------0-0---------0-0-----3-3-0-----------0-0-----0----0-|
|-----6-6---------3h5---------------5-----3h5----------------|
|-0-0---------0-0---------0-0---------0-0----------3-----1---|

(x1)
|---------------------------------|
|---------------------------------|
|---------------------------------|
|---0---0---0---0---0---0---0---0-|
|-8---8---8---8---7---7---7---7---|
|---------------------------------|

hit that distorsion pedal! weeeeee!
|----------------------|
|----------------------|
|--5----5-----4-----4--|
|--3----3-----2-----2--|
|--3----3-----2-----2--|
|--3----3-----2-----2--|

hit that distorsion pedal alittle harder! weeeeeeeeeeeeeee!
|---------------------------|---------------------|
|--3-------8---8/-7---6---5--|--3-------8---8/-7--|
|--2---5---7---5/-6---5---4--|--2---5---7---7/-6--|
|--0---3---5---5/-4---3---2--|--0---3---5---5/-4--|
|--0---3---5---5/-4---3---2--|--0---3---5---5/-4--|
|--0-------5---5/-4---3---2--|--0-------5---5/-4--|
[ Tab from: http://www.guitartabs.cc/tabs/c/creed/wrong_way_tab_ver_6.html ]
palm mute
|------------------------------------------------------------------|
|------------------------------------------------------------------|
|------------------------------------------------------------------|
|------------------------------------------------------------------|
|--------5-5-5------4-4-4-5-5-4-4----------------------------------|
|--0-0-0------0-0-0---------------0-0-0-8-8-8-0-0-0-7-7-7-8-7-7-5--|

|-----------------------------------------------------------|
|-----------------------------------------------------------|
|-----------------------------------------------------------|
|----------------------------------------8-8-------7-8-7-5--|
|--------5-5-5-------4-4-4-5-5-4-4-------8-8-------7-8-7-5--|
|--0-0-0-------0-0-0---------------0-0-0-8-8-0-0-0-7-8-7-5--|
    
|------------------------------------------------------------------|
|------------------------------------------------------------------|
|------------------------------------------------------------------|
|------------------------------------------------------------------|
|--------5-5-5------4-4-4-5-5-4-4----------------------------------|
|--0-0-0------0-0-0---------------0-0-0-8-8-8-0-0-0-7-7-7-8-7-7-5--|

|---------------------------------------------------|
|---------------------------------------------------|
|--------7-7-------6-6-6-7-7-6-6--------------------|
|--------7-7-------6-6-6-7-7-6-6--------8-8-8-0-7~~~|
|--------5-5-------4-4-4-5-5-4-4--0-0-0-8-8-8-0-7~~~|
|--0-0-0-----0-0-0----------------0-0-0-8-8-8-0-7~~~|

clean (chorus and reverb are niiiice)
(x4)
|---------6----------------------------0------|
|-----------6------------------------3---3----|
|------8------8-----5------3-------2-------2--|
|----8----------8-----5-------1--0------------|
|--6--------------3---------------------------|
|------------------------1--------------------|

BRIDGE (hit the distorsion)
|-----------------------------------------|
|--3-------------------3------------------|
|--2-----5--7---7/8\7--2-----5--7--7/8\7--|
|--0--1--5--7---7/8\7--0--1--5--7--7/8\7--| 
|--0--1--3--5---x-x-x--0--1--3--5--x-x-x--|
|--0--1----------------0--1---------------|

|-------------------------------------|
|--3----------------3-----------------| 
|--2-----5--7--7/8--2-----5--7--------|
|--0--1--5--7--7/8--0--1--5--7-5-4-3--|
|--0--1--3--5--x-x--0--1--3--5-5-4-3--|
|--0--1-------------0--1--3--0-5-4-3--|

then this...
|-------------------------------------|
|--8--8--8---8\-7--6---6--6----5--5---|
|--7--7--7---7\-6--5---5--5----4--4---|
|--5--5--5---5\-4--3---3--3----2--2---|
|--5--5--5---5\-4--3---3--3----2--2---|
|--5--5--5---5\-4--3---3--3----2--2---|

|--------------------------------------------|
|--3--3--------8--8--8--8\-7---6--6----5--5--|
|--2--2-5-5-5--7--7--7--7\-6---5--5----4--4--|
|--0--0-5-5-5--5--5--5--5\-4---3--3----2--2--|
|--0--0-3-3-3--5--5--5--5\-4---3--3----2--2--|
|--0--0--------5--5--5--5\-4---3--3----2--2--|

|----------------------------------------|
|--3--3--------8--8--8--8--8\-7--6----5--|
|--2--2-5-5-5--7--7--7--7--7\-6--5----4--|
|--0--0-5-5-5--5--5--5--5--5\-4--3----2--|
|--0--0-3-3-3--5--5--5--5--5\-4--3----2--|
|--0--0--------5--5--5--5--5\-4--3----2--|

enjoy! sorry if its not perfect...i didn't really take my time.
Comments