Creed - With Arms Wide Open Chords & Tabs

 

With Arms Wide Open Chords & Tabs

Creed Chords & Tabs

Version: 2 Type: Tab 1 rating
1 star 2 stars 3 stars 4 stars 5 stars
comments

With Arms Wide Open Tab

   
Finger picking
e-----------------------------------------------------------
B--0h1-------1-----1h3-----1-----------0h1-------1-----1h3--
G------0-------0-------0-----0-------------0-------2--------
D--------2---------------2-----2-------------0--------------
A--3-------3-----3-3-------3-----------2-------2-----2-2----
D-----------------------------------------------------------


e---------------------------------------------------------
B------1-----------0h1-------1-----0h1p0-------0-----0h1--
G--0-----0-------------0-------0---------0-------0--------
D----0-----2-------------2-----------------2-------2------
A------2-----------0-------0-----0-------------0-----0----
D---------------------------------------------------------


e----------------------------------
B--------1-----0h1p0-------0-------
G--0-------0---------0-------0-----
D----2-----------------2-------2---
A------0-----0-------------0-------
D----------------------------------


One of the verses os played this way.
e-----------------------------------------------------------
B--0h1-------1-----1h3-----1-----------0h1-------1-----1h3--
G------0-------0-------0-----0-------------0-------2--------
D--------2---------------2-----2-------------0--------------
A--3-------3-----3-3-------3-----------2-------2-----2-2----
D-----------------------------------------------------------

[ Tab from: http://www.guitartabs.cc/tabs/c/creed/with_arms_wide_open_tab_ver_2.html ]
e-------------------------------------------------------
B------1-----------0h1-------1-----3p1-------0-----0h1--
G--0-----0-------------0-------0-------0-------0--------
D----0-----2-------------2---------------2-------2------
A------2-----------0-------0-----0-----------0-----0----
D-------------------------------------------------------


e----------------------------------
B--------1-----0h1p0-------0-------
G--0-------0---------0-------0-----
D----2-----------------2-------2---
A------0-----0-------------0-------
D----------------------------------

 
 Chorus
 Strum
     F	       C        Em         D
e----1----|---------|---------|----2----|-----
B----1----|----1----|---------|----3----|-----
G----2----|---------|---------|----2----|-----
D----3----|----2----|----2----|---------|-----
A----3----|----3----|----2----|---------|-----
D----1----|---------|---------|---------|-----


Solo
e--------------------------------------------------------------------------
B------5-5h6-5-6-5------5-6-5-6-5------5-6/8-6-5--6-5h6p5-6-5h6p6-6-5h6p5--
G--5-7--------------5-7------------5-7-------------------------------------
D--------------------------------------------------------------------------
A--------------------------------------------------------------------------
D--------------------------------------------------------------------------


               Played over solo
               Strum
e------------|------------|------------|------------|-----------|
B--6-8br-8---|------------|------------|------------|-----------|
G------------|------------|------------|------------|-----------|
D------------|-----10-----|-----10-----|------8-----|-----7-----|
A------------|-----10-----|-----10-----|------8-----|-----7-----|
D------------|-----10-----|-----9------|------8-----|-----7-----|


Key
b = Bend
r = Release bend
h = Hammer
p = Pull off
/ = Slide
Comments