Creed - With Arms Wide Open Chords & Tabs

 

With Arms Wide Open Chords & Tabs

Creed Chords & Tabs

Version: 11 Type: Tab 0 ratings
1 star 2 stars 3 stars 4 stars 5 stars
comments

With Arms Wide Open Tab

Creed
With Arms Wide Open
Human Clay

This is my first tab so go easy on me

Key b=bend until it sounds like the note in parenthisis
    r=release bend
    h=hammer on
    p=pull off

Drop D Tuning

Intro/Verse (Clean)

|-------------------------------------------------------------------
|-0h1-------1--------1h3-----1-----0h1p0--0h1-------1-------1h3-----
|-----0-------0----------0-----0--------------0-------2---------0---
|-------2------------------2-----2--------------0-----------------0-
|-3-------3-------3--3-------3------------2-------2------2--2-------
|-------------------------------------------------------------------
[ Tab from: http://www.guitartabs.cc/tabs/c/creed/with_arms_wide_open_tab_ver_11.html ]
|-------------------------------------------------------------------
|-1------0h1p0-0h1--------1------0h1p0-------0-----0h1-------1------
|---0--------------0--------0----------0-------0-------0-------0----
|-----0--------------0-------------------0-------0-------0----------
|-2------------0-------0------0------------0-------0-------0-----0--
|-------------------------------------------------------------------

|---------------------
|-0h1p0-------0-------
|-------0-------0-----
|---------0-------0---
|-----------0---------
|---------------------

Chorus (Clean the first time distorted for the rest of the song)

|-----------------------------
|-----6-----------5-----------
|-----5-----5-----4-----7-----
|-----3-----5-----2-----7-----
|-----3-----3-----2-----5-----
|-----3-----------2-----------

Solo (Distortion) I'm not quite sure if this is all correct.

|----------------------------------------------------------------
|---------5-5h6-5-6-5-----5-6-5-6-5------5-6-8-6-5-5h6p5-5-5h6p5-
|---5-5-7-------------5-7-----------5-7--------------------------
|----------------------------------------------------------------
|----------------------------------------------------------------
|----------------------------------------------------------------

|--------------------------
|---5-5h6p5-5-8b(10)8------
|--------------------------
|--------------------------
|--------------------------
|--------------------------

That's about it.
Comments