Creed - With Arms Wide Open Chords & Tabs

 

With Arms Wide Open Chords & Tabs

Creed Chords & Tabs

Version: 10 Type: Tab 0 ratings
1 star 2 stars 3 stars 4 stars 5 stars
comments

With Arms Wide Open Tab

   
with arms wide open
Drop D tunning 
low-hi D-A-D-G-B-E

THIS SONG IS PRETTY EASY BUT I DONT KNOW THE SOLO.

--------------------------------------------------------- 
-0h1--------------------3---1h3p1-------0h1--1-h3-1h3p1--
------------0--------0-----------------------0-----------
---------0---------------------------------0-------------
-3------------3---------3---------------2-----2----------
---------------------------------------------------------
[ Tab from: http://www.guitartabs.cc/tabs/c/creed/with_arms_wide_open_tab_ver_10.html ]
---------------------------------------------------
---0h1------1------h1p0----------------------------
---------------------------------------------------
--------0------------------------------------------       
---0------------0--------0-------------------------
---------------------------------------------------
then you just start over and play it untill the chorus

  CHORUS
-3333---3333---2222----2222-----------------------
-6666---3333---5555----2222-----------------------
-5555---5555---4444----4444-----------------------
-3333---5555---2222----4444-----------------------
-3333---3333---2222----2222-----------------------
-3333---0000---2222----0000-----------------------

Well thats everything but the solo
So have fun.
Comments