Creed - With Arms Wide Open Chords & Tabs

 

With Arms Wide Open Chords & Tabs

Creed Chords & Tabs

Version: 3 Type: Bass Tab 0 ratings
1 star 2 stars 3 stars 4 stars 5 stars
comments

With Arms Wide Open Bass Tab

   
Song:       With Arms Wide Open
CD:         Human Clay
Band:       Creed
Tabbed by:  Fernando Delgado
Standard Tuning
TZA is in standard tunning,but sond is passable
Main:
G|---------------------------------------------------|
D|---------------------------------------------------|
A|-3-3-3-3-3-3-3-02-2-2-2-2-2-0-0-0-0-0-0-0-0-0-0-0--|
E|---------------------------------------------------|

Chorus:
G|---------------------------------------------------|
D|---------------------------------------------------|
A|-------------3-3-3-3-3-3------------/5-5-5-5-5-5-5-|
E|-1-1-1-1-1-1-------------0-0-0-0-0-0---------------|

Variation 1:
G|---------------------------------------------------|
D|-------------------------------------5-5h7------2-0|
A|3-3-3-3-3h5-3-3--2-2-2-2h3h5--0-0-0-0-----0-0-0----|
E|---------------------------------------------------|
[ Tab from: http://www.guitartabs.cc/tabs/c/creed/with_arms_wide_open_btab_ver_3.html ]
Variation 2:
G|------------------------------------------12-12h14-|
D|------------------------------------7-7-7----------|
A|3-3-3-3-3-3-3-2-2-2-2-2h3h5-0-0-0-0----------------|
E|---------------------------------------------------|

Interlude:
G|---------------------------------------------------|
D|---------------------------------------------------|
A|333-33-33-3h5-222-22-22-3h5-5-5-111-11-11-000-00-00|
E|---------------------------------------------------|

Outro :
G|---------------------------------------------------|
D|-0h2-0---------------------------------------------|
A|-------3-2h3---------------------------------------|
E|---------------------------------------------------|

main         1 time  (0:33)
chorus       1 time  (0:47
variation 1  4 times (1:00)
chorus       2 times (1:41)
variation 2  1 time  (2:09)
variation 1  1 time  (2:23)
interlude    4 times (2:37)
chorus       2 times (3:17)
main         1 time  (3:44)
variation 2  1 time  (3:58)
outro        1 time  (4:09)
Comments