Creed - With Arms Wide Open Chords & Tabs

 

With Arms Wide Open Chords & Tabs

Creed Chords & Tabs

Version: 2 Type: Bass Tab 0 ratings
1 star 2 stars 3 stars 4 stars 5 stars
comments

With Arms Wide Open Bass Tab

   
Creed 
With Arms Wide Open
Human Clay
Originally tabbed by Tim Reid 
Correction by Marc Patricelli

Intro/1st Verse
G|------------------------0-0-0-0-2-|
D|----------------------------------|
A|3-3-3-3-2-2-2-2-0-0-0-0-----------|
E|----------------------------------|

1st Chorus
G|------------------------------------| 
D|------------------------------------|
A|-------------3--3--3h5p0---------5~-|
E|-1--1--1h3h4-------------0--0--0----|

2nd Verse
G|-------------------------0------------------9-7---------
D|-------------------------------5h7-7-14-12------7-5-2-0-
A|-3--3--5-3-2--2--2h3h5-0---5h7--------------------------
E|--------------------------------------------------------
[ Tab from: http://www.guitartabs.cc/tabs/c/creed/with_arms_wide_open_btab_ver_2.html ]
G|-------------------------0---------------------------- 
D|-------------------------------5h7-7--12h14--5h7--0h2-
A|-3--3--5-3-2--2--2h3h5-0---5h7------------------------
E|------------------------------------------------------

G|-------------------------0----------------------| 
D|-------------------------------5h7-7-5h7--5-----|
A|-3--3--5-3-2--2--2h3h5-0---5h7----------------5-|
E|------------------------------------------------|
 
2nd Chorus
G|-----------------------------------------------------------------| 
D|*-----------------------------------------------------5h7-7-5---*|
A|*-------------------3-xx3-x3-x3-3h5p0---------5-5-5h7---------7-*|
E|--1-xx1-x1-x1-1h3h4-------------------0--0-0---------------------|

Little riff before solo
G|----------5h7-7-7-7p5---|
D|---------------------5--|
A|-0--0--0--------------5-|
E|------------------------|


Solo
G|---------------------------------------------| 
D|---------------------------------------------|
A|-3-3-3-3-3h5-2-2-2-2-2h3h5-1-1-1-1-1-0-0-0-0-|
E|---------------------------------------------|
 
3rd Chorus, same as 2nd chorus
Comments