Creed - Whos Got My Back Chords & Tabs

 

Whos Got My Back Chords & Tabs

Creed Chords & Tabs

Version: 4 Type: Tab 0 ratings
1 star 2 stars 3 stars 4 stars 5 stars
comments

Whos Got My Back Tab

   
Artist: Creed
Song: Who's Got My Back
Album: Weathered
Written by: Mark Tremonti and Scott Stapp
Tabbed by: Drew Montgomery
E-mail: royalfate@aol.com
Tuning: Drop-D(D-A-D-G-B-E)
Key: x or . = palm mute, h = hammer-on, / = slide

Okay, here's my NEW version(OLD=ver1) of Who's Got My Back.
This song is just amazing. God bless and rock on!!!

Intro/Verse(clean fingerpicking with chorus and delay)

E|---------------------------14-----14--15--17--17--18--17---------|
B|-----------------------------------------------------------------|
G|-----------------------------------------------------------------|
D|--0-0-0-0-0-0-0-0-0-0-0-0-0--0-0-0--0---0---0---0---0---0-0-0-0--|
A|-----------------------------------------------------------------|
D|-----------------------------------------------------------------|

E|-----20--18--17--15--17--15--------15--14--12--12/14--15--14--15-|
B|------------------------------11---------------------------------|
G|------------------------------10---------------------------------|
D|--0-0--0---0---0---0---0---0-0--0-0--0---0---0------0---0---0----|
A|-----------------------------------------------------------------|
D|-----------------------------------------------------------------|

First Chorus(clean)

E|-----------------------------------------------------------------|
B|-----------------------------------------------------------------|
G|--11-11-11-11-11-11-11-11-12-12-12-12/14-14-14-14-14-------------|
D|--x--x--x--x--x--x--x--x--x--x--x--x--x--x--x--x--x--------------|
A|--9--9--9--9--9--9--9--9--10-10-10-10/12-12-12-12-12-------------|
D|--0--0--0--0--0--0--0--0--0--0--0--0--0--0--0--0--0--------------|

E|-----------------------------------------------------------------|
B|-----------------------------------------------------------------|
G|--11-11-11-11-11-11-11-11-12-12-12-12-17-17-17-15-14-12-14-12----|
D|--x--x--x--x--x--x--x--x--x--x--x--x--x--x--x--x--x--x--x--x-----|
A|--9--9--9--9--9--9--9--9--10-10-10-10-15-15-15-13-12-10-12-10----|
D|--0--0--0--0--0--0--0--0--0--0--0--0--0--0--0--0--0--0--0--0-----|
[ Tab from: http://www.guitartabs.cc/tabs/c/creed/whos_got_my_back_tab_ver_4.html ]
E|-----------------------------------------------------------------|
B|-----------------------------------------------------------------|
G|--12-12-12-3-3-3-3-12-11-9-9/11-12-11-11-11-11/12-12-------------|
D|--x--x--x--x-x-x-x-x--x--x-x-x--x--x--x--x--x--x--x--------------|
A|--10-10-10-1-1-1-1-10-9--7-7-9--10-9--9--9--9-/10-10-------------|
D|--0--0--0--0-0-0-0-0--0--0-0-0--0--0--0--0--0--0--0--------------|

Second Chorus(distortion)

E|-----------------------------------------------------------------|
B|-----------------------------------------------------------------|
G|--11-11-11-11-11-11-11-12-12-12-12-12-12-14-14-14-14-------------|
D|--x--x--x--x--x--x--x--x--x--x--x--x--x--x--x--x--x--------------|
A|--9--9--9--9--9--9--9--10-10-10-10-10-10-12-12-12-12-------------|
D|--0--0--0--0--0--0--0--0--0--0--0--0--0--0--0--0--0--------------|
  pm.............................
E|-----------------------------------------------------------------|
B|-----------------------------------------------------------------|
G|--11---11-11-11-12-12-12-12-12-----17-17-15-14-12-14-12-12-12-12-|
D|--x--0-x--x--x--x--x--x--x--x--0-0-x--x--x--x--x--x--x--x--x--x--|
A|--9--0-9--9--9--9--9--9--9--9--0-0-15-15-13-12-10-12-10-10-10-10-|
D|--0--0-0--0--0--0--0--0--0--0--0-0-0--0--0--0--0--0--0--0--0--0--|
       .                         ...
E|-----------------------------------------------------------------|
B|-----------------------------------------------------------------|
G|------3-3-3-3-12-11-9-9/11-12-11-11-11-11-12-12-12-12-14-14-14---|
D|--0-0-x-x-x-x-x--x--x-x-x--x--x--x--x--x--x--x--x--x--x--x--x----|
A|--0-0-1-1-1-1-10-9--7-7-9--10-9--9--9--9--10-10-10-10-12-12-12---|
D|--0-0-0-0-0-0-0--0--0-0-0--0--0--0--0--0--0--0--0--0--0--0--0----|
    ...
Interlude(clean)

E|-----------------------------------------------------------------|
B|-----------------------------------------------------------------|
G|-----------------------------------------------------------------|
D|--5-7-5-7-8-5-7-7-5-7-7-5-8-7-5----------------------------------|
A|--0-0-0-0-0-0-0-0-0-0-0-0-0-0-0----------------------------------|
D|-----------------------------------------------------------------|
    .............................
Bridge/Outro(distortion)

E|-----------------------------------------------------------------|
B|-----------------------------------------------------------------|
G|--11-12-14-----11-12-15-----15-14--------------------------------|
D|--x--x--x--0-0-x--x--x--0-0-x--x---------------------------------|
A|--9--10-12-0-0-9--10-13-0-0-13-12--------------------------------|
D|-----------0-0----------0-0--------------------------------------|

There, that's better.
Comments