Creed - Whos Got My Back Chords & Tabs

 

Whos Got My Back Chords & Tabs

Creed Chords & Tabs

Version: 3 Type: Tab 0 ratings
1 star 2 stars 3 stars 4 stars 5 stars
comments

Whos Got My Back Tab

   
Artist: Creed
Song: Who's Got My Back
Tabbed by: Jaime Ruiz Noe /starchild20_2000@hotmail.com
Tuning: Drop-D(D-A-D-G-B-E)

One of the best songs of Creed

Intro with delay 

E|--14--14--15--17--17--18--17---20--18--17--15--17--15--|
B|-------------------------------------------------------|
G|-------------------------------------------------------|
D|-------------------------------------------------------|
A|-------------------------------------------------------|
D|-------------------------------------------------------|

E|-------17--15--14--14b--15--14--------15---------------|
B|--11---------------------------------------------------|
G|-------------------------------------------------------|
D|-------------------------------------------------------|
A|-------------------------------------------------------|
D|-------------------------------------------------------|

VERSE

E|15-14--14--15--17--17--18--17---20--18--17--15--17--15-|
B|-------------------------------------------------------|
G|-------------------------------------------------------|
D|-------------------------------------------------------|
A|-------------------------------------------------------|
D|-------------------------------------------------------|

E|-----14--14--15--17--17--18--17---20--18--17--15--17--15-|
B|11-------------------------------------------------------|
G|---------------------------------------------------------|
D|---------------------------------------------------------|
A|---------------------------------------------------------|
D|---------------------------------------------------------|

E|--14--14--15--17--17--18--17---20--18--17--15--17--15--|
B|-------------------------------------------------------|
G|-------------------------------------------------------|
D|-------------------------------------------------------|
A|-------------------------------------------------------|
D|-------------------------------------------------------|

E|-------17--15--14--14b--15--14--------15---14---15-----|
B|--11---------------------------------------------------|
G|-------------------------------------------------------|
D|-------------------------------------------------------|
A|-------------------------------------------------------|
D|-------------------------------------------------------|



Chorus(clean)

E|-------------------------------------------------------|
B|-------------------------------------------------------|
G|--11-11-11-11-11-11-12-12-12-12/14-14-14-14-14-14------|  
D|--0--0--0--0--0--0--0--0--0--0--0--0--0--0--0--0-------|
A|--0--0--0--0--0--0--0--0--0--0--0--0--0--0--0--0-------|
D|--0--0--0--0--0--0--0--0--0--0--0--0--0--0--0--0-------|
[ Tab from: http://www.guitartabs.cc/tabs/c/creed/whos_got_my_back_tab_ver_3.html ]
E|-------------------------------------------------------|
B|-------------------------------------------------------|
G|--11-11-11-11-11-11-12-12-12-12-17-17-15-14-12-14-12---|
D|--0--0--0--0--0--0--0--0--0--0--0--0--0--0--0--0--0----|
A|--0--0--0--0--0--0--0--0--0--0--0--0--0--0--0--0--0----|
D|--0--0--0--0--0--0--0--0--0--0--0--0--0--0--0--0--0----|

E|-------------------------------------------------------|
B|-------------------------------------------------------|
G|--12-12-12-12-3-3-3-3-12-11-9-9h11-12-11-11-11-12------|
D|--0--0--0--0--0-0-0-0-0--0--0-0-0--0--0--0--0--0-------|
A|--0--0--0--0--0-0-0-0-0--0--0-0-0--0--0--0--0--0-------|
D|--0--0--0--0--0-0-0-0-0--0--0-0-0--0--0--0--0--0-------|


THE NEXT IS REPEAT THE INTRO AND THE VERSE AND AFTER OF THAT COMES THE CORUS WITH DISTORTION

Chorus(distortion)

PM................... PM................/REPEAT

E|--------------------------------------/-----------------|
B|--------------------------------------/-----------------|
G|--11-11-11-11-11-11-12-12-12-12-12-12-/-11-11-11-11-11--|
D|--0--0--0--0--0--0--0--0--0--0--0--0--/-0--0--0--0--0---|
A|--0--0--0--0--0--0--0--0--0--0--0--0--/-0--0--0--0--0---|
D|--0--0--0--0--0--0--0--0--0--0--0--0--/-0--0--0--0--0---|

E|-------------------------------------------------------|
B|-------------------------------------------------------|
G|--12-12-12-12-12-17-17-15-14-12-14-12-12-12-12-12------|
D|--0--0--0--0--0--0--0--0--0--0--0--0--0--0--0--0-------|
A|--0--0--0--0--0--0--0--0--0--0--0--0--0--0--0--0-------|
D|--0--0--0--0--0--0--0--0--0--0--0--0--0--0--0--0-------|

E|-----------------------------------------------------/--|
B|-----------------------------------------------------/--|
G|--3-3-3-3-12-11-9-9h11-12-11-11-11-11-12-12-12-12-12-/--|
D|--0-0-0-0-0--0--0-0-0--0--0--0--0--0--0--0--0--0--0--/--|
A|--0-0-0-0-0--0--0-0-0--0--0--0--0--0--0--0--0--0--0--/--|
D|--0-0-0-0-0--0--0-0-0--0--0--0--0--0--0--0--0--0--0--/--|


WELL HERE IS A PART OF THE BRIDGE BUT REALLY IS THE BASS WHO MAKE THIS PART

PM................................
E|-------------------------------------------------------|
B|-------------------------------------------------------|
G|-------------------------------------------------------|
D|--5-7-5-7-8-5-7-7-5-7-7-5-8-7-5------------------------|
A|--0-0-0-0-0-0-0-0-0-0-0-0-0-0-0------------------------|
D|-------------------------------------------------------|

Bridge/Outro                                               
E|-------------------------------------------------------|
B|-------------------------------------------------------|
G|--11-12-14-----12-14-15-----12-11----------------------|
D|--x--x--x--X-X-x--x--x--X-X-x--x-----------------------|
A|--9--10-12-X-X-10-12-13-X-X-10-9-----------------------|
D|-----------X-X----------X-X----------------------------|
           
IN THE FIRTS END OF THE BRIDGE WITH DISTORTION

E|-----------------------------------------------------|
B|-----------------------------------------------------|
G|-11-----15-----7----12-11-9--------------------------|
D|-X------X------X----X--X--X--------------------------|
A|-9------13-----5----10-9--7--------------------------|
D|-----------------------------------------------------|


Heaven Can Wait 
It's time to play
Comments