Creed - Whos Got My Back Chords & Tabs

 

Whos Got My Back Chords & Tabs

Creed Chords & Tabs

Version: 1 Type: Tab 2 ratings
1 star 2 stars 3 stars 4 stars 5 stars
comments

Whos Got My Back Tab

#----------------------------------PLEASE NOTE--------------------------------# 
#This file is the author's own work and represents their interpretation of the# 
#song. You may only use this file for private study, scholarship, or research.# 
#-----------------------------------------------------------------------------# 
#-----------------------------------------------------------------------------# 

Author/Artist: Creed 
Title: Who's Got My Back? 
Album: Weathered 
Tuning: Drop D 
Transcribed by: Matty N
Email: Matt2332@excite.com

Intro - (clean tone, in at 1:18) 
----------------------|-------------------|------|-------------------------| 
-7---7-8-10-10-11-10--|--13-11-10-8-10-8--|--11--|--8-7-5-5/7-8-7---8---8--| 
----------------------|-------------------|--10--|-------------------------| 
----------------------|-------------------|------|-------------------------| 
----------------------|-------------------|------|-------------------------| 
----------------------|-------------------|------|-------------------------| 


Verse (in at 1:41) Run . . . hide . . . 
----------------------|-------------------|------| 
-7---7-8-10-10-11-10--|--13-11-10-8-10-8--|--11--| 
----------------------|-------------------|--10--| 
----------------------|-------------------|------| 
----------------------|-------------------|------| 
----------------------|-------------------|------| 

----------------------------------------| 
-7---7-8-10-10-11-10---13-11-10-8-10-8--| 
----------------------------------------| 
----------------------------------------| 
----------------------------------------| 
----------------------------------------| 

----------------------|-------------------|------|----------------------------| 
-7---7-8-10-10-11-10--|--13-11-10-8-10-8--|--11--|--8-7-5-5/7-8-7---8---7--8--| 
----------------------|-------------------|--10--|----------------------------| 
----------------------|-------------------|------|----------------------------| 
----------------------|-------------------|------|----------------------------| 
----------------------|-------------------|------|----------------------------| 


PreChorus (strum, in at 2:38) To rest our head on . . . 
------------------------------------------------------------------------------| 
-7-7-7-7-7-7-7-7-7-7-7/8-8-8-8-8-8-8/10-10-10-10-10\6-6-6-6-6-6-6-6-6-6-6-6/8-| 
------------------------------------------------------------------------------| 
-4-4-4-4-4-4-4-4-4-4-4/5-5-5-5-5-5-5/-7--7--7--7--7\3-3-3-3-3-3-3-3-3-3-3-3/5-| 
-0-0-0-0-0-0-0-0-0-0-0-0-0-0-0-0-0-0--0--0--0--0--0-0-0-0-0-0-0-0-0-0-0-0-0-0-| 
-0-0-0-0-0-0-0-0-0-0-0-0-0-0-0-0-0-0--0--0--0--0--0-0-0-0-0-0-0-0-0-0-0-0-0-0-| 


Chorus - (strum with clean tone, in at 2:45) 
Whos . . . . . . . . got my . . . back . . . now . . . . 
------------------------------------------------------------------| 
-7-7-7-7-7-7-7-7-7-7-7--7/8--8-8-8-8-8-8-8-8-8-8--8/10--10-10-10--| 
------------------------------------------------------------------| 
-4-4-4-4-4-4-4-4-4-4-4--4/5--5-5-5-5-5-5-5-5-5-5--5/-7---7--7--7--| 
-0-0-0-0-0-0-0-0-0-0-0--0----0-0-0-0-0-0-0-0-0-0--0------0--0--0--| 
-0-0-0-0-0-0-0-0-0-0-0--0----0-0-0-0-0-0-0-0-0-0--0------0--0--0--| 
[ Tab from: http://www.guitartabs.cc/tabs/c/creed/whos_got_my_back_tab.html ]
When all we have left is deceptive . . . so disconnected . . . . 
---------------------------------------------------------------| 
-8-8-8-8-8-8-8-8-13-13-11-10-8-8-8-8/10-8-8-8-8-8-8-8-8-11-11--| 
---------------------------------------------------------------| 
-5-5-5-5-5-5-5-5-10-10--8--7-5-5-5-5/-7-5-5-5-5-5-5-5-5--9--9--| 
-0-0-0-0-0-0-0-0--0--0--0--0-0-0-0-0--0-0-0-0-0-0-0-0-0--0--0--| 
-0-0-0-0-0-0-0-0--0--0--0--0-0-0-0-0--0-0-0-0-0-0-0-0-0--0--0--| 

What is the truth now? . . . 
--------------------------------------------------| 
-----8-7-5-5/7-8-7----------7-7-7-7-7-7-7----8-8--| 
--------------------------------------------------| 
-----5-4-2-2/4-5-4----------4-4-4-4-4-4-4----5-5--| 
-----0-0-0-0-0-0-0----------0-0-0-0-0-0-0----0-0--| 
-----0-0-0-0-0-0-0----------0-0-0-0-0-0-0----0-0--| 


Then go into the verse (in at 3:08) 


Pre-Chorus (all palm muted, play with distortion, in at 4:29) 
------------------------------------------------------------------------------| 
-7b-----7-7-----7-8---8-8-8-8-8-8-8-8---13-13-11-10-8-10-8---8-8-8-8-8-8-8-8--| 
------------------------------------------------------------------------------| 
-4b-0---4-4-0-0-4-5---5-5-5-5-5-5-5-5---10-10--8-10-5--7-5---5-5-5-5-5-5-5-5--| 
------------------------------------------------------------------------------| 
-0--0---0-0-0-0-0-0---0-0-0-0-0-0-0-0----0--0--0--0-0--0-0---0-0-0-0-0-0-0-0--| 


Chorus (distorted, in at 4:35) 
Whos . . . . . . . . got my . . . back . . . now . . . . 
------------------------------------------------------------------| 
-7-7-7-7-7-7-7-7-7-7-7--7/8--8-8-8-8-8-8-8-8-8-8--8/10--10-10-10--| 
------------------------------------------------------------------| 
-4-4-4-4-4-4-4-4-4-4-4--4/5--5-5-5-5-5-5-5-5-5-5--5/-7---7--7--7--| 
------------------------------------------------------------------| 
-0-0-0-0-0-0-0-0-0-0-0--0----0-0-0-0-0-0-0-0-0-0--0------0--0--0--| 

When all we have left is deceptive . . . so disconnected . . . . 
---------------------------------------------------------------| 
-8-8-8-8-8-8-8-8-13-13-11-10-8-8-8-8/10-8-8-8-8-8-8-8-8-11-11--| 
---------------------------------------------------------------| 
-5-5-5-5-5-5-5-5-10-10--8--7-5-5-5-5/-7-5-5-5-5-5-5-5-5--9--9--| 
---------------------------------------------------------------| 
-0-0-0-0-0-0-0-0--0--0--0--0-0-0-0-0--0-0-0-0-0-0-0-0-0--0--0--| 

What is the truth now? . . . 
--------------------------------------------------| 
-----8-7-5-5/7-8-7----------7-7-7-7-7-7-7----8-8--| 
--------------------------------------------------| 
-----5-4-2-2/4-5-4----------4-4-4-4-4-4-4----5-5--| 
--------------------------------------------------| 
-----0-0-0-0-0-0-0----------0-0-0-0-0-0-0----0-0--| 


Then it goes into interlude (in at 5:20) 

Play 3 x - Then this - 
-------------|---------------------------| 
-------------|---------------------------| This is all 
-------------|---------------------------| palm muted! 
-5--7--8--7--|--5--7--8--7--10--8--7--5--| 
-------------|---------------------------| 
-------------|---------------------------| 


Bridge (in at 5:47) What is the truth now? 
---------------------------------| 
-7-8-10-------8-10-11------11-8--| 
---------------------------------| The open 0s are 
-4-5--7--0-0--5--7--8--0-0--8-5--| palm muted 
---------0-0-----------0-0-------| 
-0-0--0--0-0--0--0--0--0-0--0-0--| 

It goes onto the chorus. (in at 6:07) Whos got my back now? 

Then play the bridge until the end What is the truth now . . . (in at 6:51) 

Then the indian comes back at the end

Tab Key - 
b = bend string 
/ = slide up 
\ = slide down 

Comments