Creed - Weathered Correct Chords & Tabs

 

Weathered Correct Chords & Tabs

Creed Chords & Tabs

Version: 1 Type: Tab 0 ratings
1 star 2 stars 3 stars 4 stars 5 stars
comments

Weathered Correct Tab

   
Song: Weathered
Band: Creed

This is a really cool song and it is totaly correct. Most people dont
know that this song is tuned differenty.

Tuning:D-A-D-A-D-D

------------------------------------------------------------------------------|
-3p0----------------------0---------------0---------------2p0-----0---------0-|
------0--------0-------------0---------------------------------------3--------|
---------0----------------------0---------------------------------------------|
-3----------3-----2-----------------------------------------------------------|
-----------------------------------3/5----------------------------------------|

------------------------------------------------------------------12--------7-|
-3p0----------------------0---------------0-----------------------12--------7-|
------0----------------------0------------------------------------12--------7-|
---------0-----3----------------0---------------------------------------------|
-3----------3-----2-----------------------------------------------------------|
-----------------------------------3/5----------------------------------------|
[ Tab from: http://www.guitartabs.cc/tabs/c/creed/weathered_correct_tab.html ]
------------------------------------------------------------------------------------0-|
-3p0----------------------0---------------0----------------------2p0--2/4--0----------|
------0----------------------0------------------------------------------------3-------|
---------0-----3----------------0------------0---5/3---0------------------------------|
-3----------3-----2-------------------------------------------------------------------|
-----------------------------------3/5---------------------0--------------------------|

------------------------------------------------------------------7-------------------|
-3p0----------------------0---------------0-----------------------------------12-----7|
------0----------------------0---------------------------------------------12--------7|
---------0-----3----------------0------------0---5/3---0-----------------------------7|
-3----------3-----2-------------------------------------------------------------------|
-----------------------------------3/5---------------------0--------------------------|

----------------------------------------------------------------------------------0---|
-3p0----------------------0---------------0------------------------------------0--0---|
------0----------------------0-------------------------------------------------------0|
---------0-----3----------------0------------0---5/3---0------------------------------|
-3----------3-----2-------------------------------------------------------------------|
-----------------------------------3/5---------------------0--------------------------|

--------------------------------------------------------------------------------------|
-3p0----------------------0---------------0----------------------2p0--2/4--0--------0-|
------0----------------------0------------------------------------------------3--0----|
---------0-----3----------------0------------0---5/3---0------------------------------|
-3----------3-----2-------------------------------------------------------------------|
-----------------------------------3/5---------------------0--------------------------|

This is just the part that everybody wants to learn.
Hope you really enjoy this one.
Davy S.
Comments