Creed - Wash Away Those Years Chords & Tabs

 

Wash Away Those Years Chords & Tabs

Creed Chords & Tabs

Version: 4 Type: Tab 0 ratings
1 star 2 stars 3 stars 4 stars 5 stars
comments

Wash Away Those Years Tab

   
Drop-D Tuning

Intro/Verse 1: (Clean)
Play 5 times:
E-|----------------------------------------------------------------------------------|
B-|----------------------------------------------------------------------------------|
G-|----10---10---10---9---9h10---9h10---9h10p9-7---7h9---7h9---7h9p7-7---6-6h7---7/--|
D-|--0----0----0----0---0------0------0----------0-----0-----0---------0-------0-----|
A-|----------------------------------------------------------------------------------|
D-|----------------------------------------------------------------------------------|

Play 1 time:
E-|-------------------------------------|
B-|-------------------------------------|
G-|----9---7h9---7h9---7h9-7---6h7---7--|
D-|--0---0-----0-----0-------0-----0----|
A-|-------------------------------------|
D-|-------------------------------------|
End of Intro/Verse 1

1st Chorus: (Clean)
E-|------------------------------------------------------------------|
B-|------------------------------------------------------------------|
G-|--5--5--5-5-5--5--5--5-5-4--4-4/7--7--7-7-7-8--7h8p7------7/10\\9-|
D-|--3--3--3-3-3--2--2--2-2-2--2-2/5--5--5-5-5-6--5h6p5--0-0-0-------|
A-|--3--3--3-3-3--2--2--2-2-2--2-2/5--5--5-5-5-6--5h6p5--0-0---------|
D-|--3--3--3-3-3--2--2--2-2-2--2-2/5--5--5-5-5-6--5h6p5--0-0---------|

E-|-----------------------------------------------------------------------|
B-|-----------------------------------------------------------------------|
G-|--5--5--5-5-5--5--5--5-5-4--4-4/7--7--7-7-7-8--7h8p7-------------------|
D-|--3--3--3-3-3--2--2--2-2-2--2-2/5--5--5-5-5-6--5h6p5--5-5--0-0--5---0--|
A-|--3--3--3-3-3--2--2--2-2-2--2-2/5--5--5-5-5-6--5h6p5--5-5--0-0--5---0--|
D-|--3--3--3-3-3--2--2--2-2-2--2-2/5--5--5-5-5-6--5h6p5--5-5--0-0--5---0--|
End of 1st Chorus

Verse 2: (Clean)
Play 3 times:
E-|--------------------------------------------------------------------------------|
B-|--------------------------------------------------------------------------------|
G-|--/10---10---10---9---9h10---9h10---9h10p9-7---7h9---7h9---7h9p7-7---6-6h7---7--|
D-|------0----0----0---0------0------0----------0-----0-----0---------0-------0----|
A-|--------------------------------------------------------------------------------|
D-|--------------------------------------------------------------------------------|
[ Tab from: http://www.guitartabs.cc/tabs/c/creed/wash_away_those_years_tab_ver_4.html ]
Play 1 time:
E-|-----------------------------------|
B-|-----------------------------------|
G-|----9---7h9---7h9---7h9-7-6h7---7--|
D-|--0---0-----0-----0-----------0----|
A-|-----------------------------------|
D-|-----------------------------------|
End of Verse 2

2nd Chorus: (Distortion)
Part 1: Play 3 times
E-|------------------------------------------------------------------|
B-|------------------------------------------------------------------|
G-|--5--5--5-5-5--5--5--4-4-4--4-4/7--7--7-7-7-8--7h8p7------7/10\\9-|
D-|--3--3--3-3-3--2--2--2-2-2--2-2/5--5--5-5-5-6--5h6p5--0-0-0-------|
A-|--3--3--3-3-3--2--2--2-2-2--2-2/5--5--5-5-5-6--5h6p5--0-0---------|
D-|--3--3--3-3-3--2--2--2-2-2--2-2/5--5--5-5-5-6--5h6p5--0-0---------|

Part 2: Play 1 time
E-|-----------------------------------------------------------------------|
B-|-----------------------------------------------------------------------|
G-|--5--5--5-5-5--5--5--4-4-4--4-4/7--7--7-7-7-8--7h8p7-------------------|
D-|--3--3--3-3-3--2--2--2-2-2--2-2/5--5--5-5-5-6--5h6p5--5-5--0-0--5---0--|
A-|--3--3--3-3-3--2--2--2-2-2--2-2/5--5--5-5-5-6--5h6p5--5-5--0-0--5---0--|
D-|--3--3--3-3-3--2--2--2-2-2--2-2/5--5--5-5-5-6--5h6p5--5-5--0-0--5---0--|
End of 2nd Chorus

Interlude:
E-|-----------|
B-|-----------|
G-|-----------| The 5\'s are played with Distortion
D-|--5-----0--| and the 0\'s are clean with Bass.
A-|--5-----0--|
D-|--5-----0--|
End of Interlude

Solo/Bridge: 
Play this 3 times:
E-|-------------------------------------------------------------------------------------------|
B-|-------------------------------------------------------------------------------------------|
G-|------------12-10-8------------------------------------------------------------------------|
D-|--8--8--8-8---------12-10-8-8--8-8-8-10-8-8--10--10--10-10-12-10----------12---------------|
A-|--8--8--8-8-----------------8--8-8--------8--10--10--10-10-------13-12-12-12--13-12h13p12--|
D-|--8--8--8-8-----------------8--8-8--------8--10--10--10-10----------------12---------------|

Then play this once:
E-|------------------------------------------|
B-|------------------------------------------|
G-|------------------------------------------|
D-|--12--12-13-12h13p12--12--12-13-12h13p12--|
A-|--12------------------12------------------|
D-|--12------------------12------------------|
End of Solo/Bridge

Repeat Chorus 2 Part 1, Part 2, and Interlude
Comments