Creed - Stand Here With Me Chords & Tabs

 

Stand Here With Me Chords & Tabs

Creed Chords & Tabs

Version: 8 Type: Tab 0 ratings
1 star 2 stars 3 stars 4 stars 5 stars
comments

Stand Here With Me Tab

   
Tabbed by: mike mccarthy
Email: dumpweed15@hotmail.com

Tuning: drop d.
       
(  i know its played on a 24 fret guitar, but can play it on a 21 fret guitar )
   guitar 2's power chords are ..

            
              A5         G5         D5         C5        B5         F5
         e|---------  ---------  ---------  --------- ---------  ----------
         B|---------  ---------  ---------  --------- ---------  ----------
         G|---------  ---------  ---------  ---5----- ---3-----  ----------
         D|---7-----  ---5-----  ---0-----  ---5----- ---3-----  ---3------
         A|---7-----  ---5-----  ---0-----  ---3----- ---1-----  ---3------ 
         D|---7-----  ---5-----  ---0-----  --------- ---------  ---3------

     intro                              

e|---------------------------------------------------------------------------|
B|--------------------------------------------------------------3------------|
G|-------------------------------11~----------11-11h12-12-11~---2------------|
D|-----11h12--11h12-12h14--11h12-----------12-------------------0------------|
A|---0-------0------------0-----------9h10-----------------------------------|
E|---------------------------------------------------------------------------|

e|---------------------------------------------------------------------------|
B|--------------------3------------------------------------------------------|
G|-----------4h6-7~---2------------4h6-7\9~----------------------------------|
D|---------7----------0----------7-------------------------------------------|
A|---0-4h5-----------------0-4h5---------------------------------------------|
D|---------------------------------------------------------------------------|

 ( guitars 1 and 2 distortion here )
   A5                              G5
e|---------------------------------------------------------------------------|
B|---------------------------------------------------------------------------|
G|-----------------------------------------11-12b14--12p11-------------------|
D|------------------------------11------12-----------------12----------------|
A|---11h12---11h12-12h14--11h12----9h10--------------------------------------|
D|-0-------0-------------0---------------------------------------------------|
     D5
e|---------------------------------------------------------------------------|
B|---------------------------------------------------------------------------|
G|--------------4h6-7b9--7-------------4h6-7\9~------------------------------|
D|---0--------7------------0--------7----------------------------------------|
A|---0----4h5--------------0----4h5------------------------------------------|
D|---0---------------------0-------------------------------------------------|

   A5                              G5
e|---------------------------------------------------------------------------|
B|---------------------------------------------------------------------------|
G|-----------------------------------------11-11h12-12-11--------------------|
D|------------------------------11------12-----------------------------------|
A|---11h12---11h12-12h14--11h12----9h10--------------------------------------|
D|-0-------0-------------0---------------------------------------------------|
     D5
e|---------------------------------------------------------------------------|
B|---------------------------------------------------------------------------|
G|--------------4h6-7~---7------------4h6-7\9~-------------------------------|
D|---0--------7------------0--------7----------------------------------------|
A|---0----4h5--------------0----4h5------------------------------------------|
D|---0---------------------0-------------------------------------------------|

  A5                              G5
e|---------------------------------------------------------------------------|
B|---------------------------------------------------------------------------|
G|-----------------------------------------11-12b14--12-11-------------------|
D|------------------------------11------12-----------------12----------------|
A|---11h12---11h12-12h14--11h12----9h10--------------------------------------|
D|-0-------0-------------0---------------------------------------------------|
     D5
e|---------------------------------------------------------------------------|
B|---------------------------------------------------------------------------|
G|--------------4h6-7b9--7-------------4h6-7\9~------------------------------|
D|---0--------7------------0--------7----------------------------------------|
A|---0----4h5--------------0----4h5------------------------------------------|
D|---0---------------------0-------------------------------------------------|

   A5                              G5
e|---------------------------------------------------------------------------|
B|---------------------------------------------------------------------------|
G|-----------------------------------------11-11h12-12-11--------------------|
D|------------------------------11------12-----------------------------------|
A|---11h12---11h12-12h14--11h12----9h10--------------------------------------|
D|-0-------0-------------0---------------------------------------------------|
     D5
e|---------------------------------------------------------------------------|
B|---------------------------------------------------------------------------|
G|--------------4h6-7~---7------------4h6-7\9~-------------------------------|
D|---0--------7------------0--------7----------------------------------------|
A|---0----4h5--------------0----4h5------------------------------------------|
D|---0---------------------0-------------------------------------------------|
[ Tab from: http://www.guitartabs.cc/tabs/c/creed/stand_here_with_me_tab_ver_8.html ]
 A5                              G5
e|---------------------------------------------------------------------------|
B|---------------------------------------------------------------------------|
G|-----------------------------------------11-12b14--12-11-------------------|
D|------------------------------11------12-----------------12----------------|
A|---11h12---11h12-12h14--11h12----9h10--------------------------------------|
D|-0-------0-------------0---------------------------------------------------|
     D5
e|---------------------------------------------------------------------------|
B|---------------------------------------------------------------------------|
G|--------------4h6-7b9--7-------------4h6-7\9~------------------------------|
D|---0--------7------------0--------7---------------0------------------------|
A|---0----4h5--------------0----4h5-----------------0------------------------|
D|---0---------------------0------------------------0------------------------|
        
 Chorus                           
e|---------------------------------------------------------------------------|
B|---------------------------------------------------------------------------|
G|5-5-5-5-5-5-5-5-5-5-5-5--3-3-3-3-3-3-3-----------------------------6\7-----|
D|5-5-5-5-5-5-5-5-5-5-5-5--3-3-3-3-3-3-3--3-3-3-3\5-5-5-5-5--0-0-0-0-x-x-----|
A|3-3-3-3-3-3-3-3-3-3-3-3--1-1-1-1-1-1-1--3-3-3-3\5-5-5-5-5--0-0-0-0-4\5-----|
D|----------------------------------------3-3-3-3\5-5-5-5-5--0-0-0-0---------|

e|-----------------------------|
B|-----------------------------|
G|---------6\7----cuz-u-stand--|
D|-0-0-0-0-x-x--0-here-with-me-|
A|-0-0-0-0-4\5--0--------------|
D|-0-0-0-0------0--------------|

e|---------------------------------------------------------------------------|
B|---------------------------------------------------------------------------|
G|5-5-5-5-5-5-5-5-5-5-5-5--3-3-3-3-3-3-3-----------------------------6\7-----|
D|5-5-5-5-5-5-5-5-5-5-5-5--3-3-3-3-3-3-3--3-3-3-3\5-5-5-5-5--0-0-0-0-x-x-----|
A|3-3-3-3-3-3-3-3-3-3-3-3--1-1-1-1-1-1-1--3-3-3-3\5-5-5-5-5--0-0-0-0-4\5-----|
D|----------------------------------------3-3-3-3\5-5-5-5-5--0-0-0-0---------|

          repeat the verse and chorus.
                      
      Solo
    C5                   B5               F5       G5       D5  
e|---------------------------------------------------------------------------|
B|-----------5h6-------------------------------------------------------------|
G|---7b10-7------7-------5h7p5p0---------------------------------------------|
D|-------------------------------5h7p5p0------------5-0-5-0-5-0-5-0---0------|
A|----------------------------------------3h5p3p0---5-0-5-0-5-0-5-0---0------|
D|--------------------------------------------------5-0-5-0-5-0-5-0---0------|
           palm mute the 5's slightly but^ not the 0'S
  D5               C5         B5     F5           G5           D5
e|------------------------------------------------------------------------------
B|17b19--19b21--18~-18--17------------------------------------------------------
G|---------------------19--17-17b19---9-10-12p10p9-10---9------------10---------
D|----------------------------------------------------12-10-12--10-12--12-10-12~
A|------------------------------------------------------------------------------
D|------------------------------------------------------------------------------
      
       A5                                           G5
e|-----14-12-14-----14-12-14-15--14-12-14-15-14-12-14------------------------|
B|--------------15~----------------------------------15~---------------------|
G|---------------------------------------------------------------------------|
D|-0-------------------------------------------------------------------------|
A|-0-------------------------------------------------------------------------|
D|-0-------------------------------------------------------------------------|
   
                                    D5
e|---14-12-14-15--14-12-14-15-14-12-14------14-12-14-15--14-12-14-15-14-12-14|
B|-------------------------------------15~-----------------------------------|
G|---------------------------------------------------------------------------|
D|---------------------------------------------------------------------------|
A|---------------------------------------------------------------------------|
D|---------------------------------------------------------------------------|
    
     A5                                                  G5      bend 3 times
e|---14h17p14---14h17p14---14h17p14---14h19p14---14h19p14--14h17---17b19-----|
B|-----------15---------15---------15---------15---------15-----15-----------|
G|---------------------------------------------------------------------------|
D|---------------------------------------------------------------------------|
A|---------------------------------------------------------------------------|
D|---------------------------------------------------------------------------|
 D5                     A5                          G5                 
e|---------------------------------------------------------------------------|
B|---------------------------------------------------------------------------|
G|-----------4h6-7b9--7----------------------------11~-----11-12b14-12p11-12-|
D|-0------7---------------11h12--11h12-12h14--11h12--------------------------|
A|-0--4h5----------------0------0------------0---------9h10------------------|
D|-0-------------------------------------------------------------------------|
  D5
e|---------------------------------------------------------------------------|
B|---------------------------------------------------------------------------|
G|-------------4h6-7b9--7-----repeat-till-the-end-of-the-song----------------|
D|---0------7----------------------------------------------------------------|
A|---0--4h5------------------------------------------------------------------|
D|---0-----------------------------------------------------------------------|

| \  slide down
| h  hammer-on
| p  pull-off
| ~  vibrato
| +  harmonic
| x  Mute note
==============================================================================
Comments