Creed - Stand Here With Me Chords & Tabs

 

Stand Here With Me Chords & Tabs

Creed Chords & Tabs

Version: 5 Type: Tab 0 ratings
1 star 2 stars 3 stars 4 stars 5 stars
comments

Stand Here With Me Tab

   
Transcriber: J. Keller
E-Mail: x_hellfire_x@hotmail.com

Artist: Creed
Song: Stand Here With Me

I know this is a wierd tuning but thats just how it is!! Low - Hi

D-A-D-G-A-D

x = Palm Mute
/ = Slide Up
\ = Slide Down
^ = Bend String
h = Hit On
v = Vibrato

I Finally got to see them in concert and i am really sure this is how it goes.
 And i have the solo!
So have fun with it...


D|-------------------------------------------------------------------------------0---------------------------0----------------------------|
A|-------------------------------------------------------------------------------0---------------------------0----------------------------|
G|------------------------------------11v--------------11----11-12h----12--11v-----------------------6-7v-------------------------6-7/9v--|
D|---11-12h----11-12h----12-14h-11-12------------12------------------------12v----------------7--7/9----------------------7--7/9----------|
A|-0---------0---------0--------------------9/10----10----10--------10-----10v----------0-4/5-----------------------0-4/5-----------------|
D|----------------------------------------------------------------------------------0---------------------------0-------------------------|
      ^intro^


D|----------------------------------------------------------------------------------------------------0--------------------------|
A|----------------------------------------------------------------------------------------------------0--------------------------|
G|------------------------------------11v--------------11----12^-12-11----------------------6-7b-7v----------------------6 7/9v--|
D|---11-12h----11-12h----12-14h-11-12------------12--------------------12v--0---------7-7/9------------------------7 7/9---------|
A|-0---------0---------0--------------------9/10----10----10----------------0---0-4/5------------------------0-4/5---------------|
D|--------------------------------------------------------------------------0----------------------------0-----------------------|
       ^distortion kicks in this part^



D|----------------------------------------------------------------------------0---------------------------0--------------------------|
A|----------------------------------------------------------------------------0---------------------------0--------------------------|
G|------------------------------------11v--------------11----11-12h-12-12-11---------------------6-7b-7v---------------------6-7/9v--|
D|---11-12h----11-12h----12-14h-11-12------------12----------12-----12-12-12---------------7-7/9-----------------------7-7/9---------|
A|-0---------0---------0--------------------9/10----10----10-10-----10-10-10---------0-4/5-----------------------0-4/5---------------|
D|-------------------------------------------------------------------------------0---------------------------0-----------------------|


D|----------------------------------------------------------------------------------------------------------|
A|----------------------------------------------------------------------------------------------------------|
G|-------5-5-5-5-5-5-5-5-5-5-5-5-5-4-4-4-3-3-3-3-3-3--------------------------------------------------------|
D|-0-----5-5-5-5-5-5-5-5-5-5-5-5-5-4-4-4-3-3-3-3-3-3--3--3-3-3-3-5-5-5-0--0x-0x-0-0--0x-0--0-0-0-0-0-0-0-0--|
A|-0-----3-3-3-3-3-3-3-3-3-3-3-3-3-2-2-2-1-1-1-1-1-1--3--3-3-3-3-5-5-5-0--0x-0x-3-5--0x-0--0-0-0-3-5-5-5-0--|
D|-0--------------------------------------------------3--3-3-3-3-5-5-5-0--0x-0x-0-0--0x-0--0-0-0-0-0-0-0-0--|


D|-----------------------------------------------------------------------------------------------------|
A|-----------------------------------------------------------------------------------------------------|
G|-------5-5-5-5-5-5-5-5-5-5-5-5-5-4-4-4-3-3-3-3-3-3---------------------------------------------------|
D|-0-----5-5-5-5-5-5-5-5-5-5-5-5-5-4-4-4-3-3-3-3-3-3--3--3-3-3-3-5-5-5-0--0x-0x-0-0--0x-0--0-0-0-------|
A|-0-----3-3-3-3-3-3-3-3-3-3-3-3-3-2-2-2-1-1-1-1-1-1--3--3-3-3-3-5-5-5-0--0x-0x-3-5--0x-0--0-0-0---3^--|
D|-0--------------------------------------------------3--3-3-3-3-5-5-5-0--0x-0x-0-0--0x-0--0-0-0-5-----|

[ Tab from: http://www.guitartabs.cc/tabs/c/creed/stand_here_with_me_tab_ver_5.html ]
D|----------------------------------------------------------------------------------------------------0--------------------------|
A|----------------------------------------------------------------------------------------------------0--------------------------|
G|------------------------------------11v--------------11----12^-12-11----------------------6-7b-7v----------------------6 7/9v--|
D|---11-12h----11-12h----12-14h-11-12------------12--------------------12v--0---------7-7/9------------------------7 7/9---------|
A|-0---------0---------0--------------------9/10----10----10----------------0---0-4/5------------------------0-4/5---------------|
D|--------------------------------------------------------------------------0----------------------------0-----------------------|


D|----------------------------------------------------------------------------0---------------------------0--------------------------|
A|----------------------------------------------------------------------------0---------------------------0--------------------------|
G|------------------------------------11v--------------11----11-12h-12-12-11---------------------6-7b-7v---------------------6-7/9v--|
D|---11-12h----11-12h----12-14h-11-12------------12----------12-----12-12-12---------------7-7/9-----------------------7-7/9---------|
A|-0---------0---------0--------------------9/10----10----10-10-----10-10-10---------0-4/5-----------------------0-4/5---------------|
D|-------------------------------------------------------------------------------0---------------------------0-----------------------|


D|-0------------------0-2h-0-2h-0---0--------------------------------16^--16^--15v---15-12-13----12-------------------------------------------------------------------------------------------17----------17------------------------17----------17------------------------17----------17-----------------------------------------------------------21----------------------21----------------------19^-19^-19^-19v-------|
A|-5^--5v---7-7-8-5v--------------3---3-------------------------------------------------------15----15^-15^v-----------------------------------------------------------21-19-21-17v--21-19-21----21-19-21----21-19-21-17v--21-19-21----21-19-21----21-19-21-17v--21-19-21----21-19-21----21-19-21--24-21-17-21-24-21-17-21-24-21-17-21-24-21-17-21----21-17-21-24-21-17-21----21-17-21-24-21-17-21-----------------------|
G|--------------------------------------2-0-------------------------------------------------------------------9-10-12-10-9-10----9-----------------10--------------------------------------------------------------------------------------------------------------------------------------------------------------------------------------------------------------------------------------------------------------------|
D|------------------------------------------5-4-5-4-5-4-5-4-5-4v--------------------------------------------------------------12----10-12v-10x-12x----12-10-12v/\---------------------------------------------------------------------------------------------------------------------------------------------------------------------------------------------------------------------------------------------------12\--|
A|--------------------------------------------------------------------------------------------------------------------------------------------------------------\---------------------------------------------------------------------------------------------------------------------------------------------------------------------------------------------------------------------------------------------------12\--|
D|----------------------------------------------------------------0---------------------------------------------------------------------------------------------\--0------------------------------------------------------------------------------------------------------------------------------------------------------------------------------------------------------------------------------------------------12\--|
    ^Solo^  *The solo will only work if you are playing a 24 fret guitar*  *this is the way mark plays it but there are easier ways to do it*

E|-------------------------------------------------------------------------------------------------|
G|-------------------------------------------------------------------------------------------------|
B|----------------6-7^-7v-------------------------------------11v-------------11----12^-12-11------|
D|-0--------7-7/9------------11-12h----11-12h----12-14h-11-12-----------12--------------------12v--|
A|-0--0-4-5----------------0---------0---------0-------------------9/10----10----10----------------|
D|-0-----------------------------------------------------------------------------------------------|
Comments