Creed - Stand Here With Me Chords & Tabs

 

Stand Here With Me Chords & Tabs

Creed Chords & Tabs

Version: 1 Type: Tab 2 ratings
1 star 2 stars 3 stars 4 stars 5 stars
comments

Stand Here With Me Tab

#----------------------------------PLEASE NOTE--------------------------------# 
#This file is the author's own work and represents their interpretation of the# 
#song. You may only use this file for private study, scholarship, or research.# 
#-----------------------------------------------------------------------------# 
#-----------------------------------------------------------------------------# 

Author/Artist: Creed 
Title: Stand Here With Me 
Album: Weathered 
Tuning: Drop D 
Transcribed by: Matty N.
Email: Matt2332@excite.com

Intro (clean tone) 
---------------------------------|----------------------------------| 
---------------------------------|-------------7-----8----8-7---0---| 
---6h7----6h7----7h9--6h7/11--0--|-------7-----------7----7-7---7---| 
---------------------------------|--4h5-----5-----5-----5-------0---| 
-0------0------0-----------------|------------------------------0---| 
---------------------------------|----------------------------------| 

----------------------------|----------------------------| 
-------------------------0--|----------------------------| 
-----------------6h7--7--7--|------------------6h7--7/9--| 
-0-----------------------0--|--0-------------------------| 
-0--0--4h5--5/7----------0--|--0--0--4h5--5/7------------| 
-0--------------------------|--0-------------------------| 


Distortion kicks in (full bend on the 12th fret) 
-------------------------------|-----------------------------------| 
-------------------------------|-----------------------------------| 
----6h7----6h7-----7h9-6h7/11--|----------7-----11--12b--12p11--7--| 
-------------------------------|--4h5--5-----5---------------------| 
-0-------0--------0------------|--0--------------------------------| 
-------------------------------|-----------------------------------| 

-------------------------------|-----------------------------| 
--------------------------0----|-----------------------------| 
---------------6h7-7/9\7--0-0--|------------------6h7-7/9-9--| 
-0------------------------0----|--0--------------------------| 
-0-0-4h5--5/7------------------|--0--0--4h5--5/7-------------| 
-0-----------------------------|--0--------------------------| 


Verse (play with minor variations) 
-------------------------------|-----------------------------------| 
-------------------------------|-----------------------------------| 
----6h7----6h7-----7h9-6h7/11--|----------7-----11--12b--12p11--7--| 
-------------------------------|--4h5--5-----5---------------------| 
-0-------0--------0------------|--0--------------------------------| 
-------------------------------|-----------------------------------| 

-------------------------------|-----------------------------| 
--------------------------0----|-----------------------------| 
---------------6h7-7/9\7--0-0--|------------------6h7-7/9-9--| 
-0------------------------0----|--0--------------------------| 
-0-0-4h5--5/7------------------|--0--0--4h5--5/7-------------| 
-0-----------------------------|--0--------------------------| 


Chorus 
Cause You stand here with me . . . 
-------------------------------------| 
-------------------------------------| 
-------------------------------------| 
-0~----------------------------------| 
-0~----------------------------------| 
-0~----------------------------------| 
* 
[ Tab from: http://www.guitartabs.cc/tabs/c/creed/stand_here_with_me_tab.html ]
Nooooooooooooo~~~~~~~~~~oooooooooooooooooooww~~~~~~ 
-------------------------------------------------------| 
-------------------------------------------------------| 
-5-5-5-5-5-5-5-5-5-5-5--3-3-3-3-3-3-3-3-3-3-3-3-3-3-3--| 
-5-5-5-5-5-5-5-5-5-5-5--3-3-3-3-3-3-3-3-3-3-3-3-3-3-3--| 
-3-3-3-3-3-3-3-3-3-3-3--1-1-1-1-1-1-1-1-1-1-1-1-1-1-1--| 
-------------------------------------------------------| 

Play right after noo~~~w - 
--------------------------| 
--------------------------| 
-------------5/7----------| This part is not exact 
-0-3-3-5--0--------0-3-0--| 
-0-3-3-5--0--3/5---0-3-0--| 
-0-3-3-5--0--------0-3-0--| 

Then go into the verse 

Then the chorus 

Solo (play with whammy/vibrato bar) 
------------------------------------------------------| 
------------------------------------------------------| 
-------9b-7v--7-7-10-7v--------7-10-7h10p7-5-7-5-2----| 
-12\/--------------------10\/----------------------5--| 
-12\/--------------------10\/-------------------------| 
-12\/--------------------10\/-------------------------| 

-------------------14b-15b-13v~--13-10-12----10--------------| 
---------------------------------/\/\//\\-13----13b-13brbv~--| 
-------------------------------------------------------------| 
-5-4-5-4-5-4-------------------------------------------------| 
--------------5----------------------------------------------| 
--------------0----------------------------------------------| 

---------------------------------------------------------------------| 
---------------------------------------------------------------------| 
-9-10-12-10p9h10----9-------------------10----------------10/--------| 
-----------------12---10-12^p.h.--10-12----12-10-12^p.h.-------------| 
---------------------------------------------------------------------| 
----------------------------------------------------------------0/\--| 


-14-12-14------|--14-12-14-15--|--14-12-14-15-14-12-14------| 
----------15~--|---------------|-----------------------15~--| 
---------------|---------------|----------------------------| 
---------------|---------------|----------------------------| 
---------------|---------------|----------------------------| 
---------------|---------------|----------------------------| 

-14-12-14-15--|--14-12-14-15-14-12-14------| 
--------------|-----------------------15~--| 
--------------|----------------------------| 
--------------|----------------------------| 
--------------|----------------------------| 
--------------|----------------------------| 

-14-12-14-15-14-12-14-15-14-12-12--| 
-----------------------------------| 
-----------------------------------| 
-----------------------------------| 
-----------------------------------| 
-----------------------------------| 

-17p14----14h17p14----14h17p14----14h17p14----14h19p14----14h17p14-----| 
-------15----------15----------15----------15----------15----------15--| 
-----------------------------------------------------------------------| 
-----------------------------------------------------------------------| 
-----------------------------------------------------------------------| 
-----------------------------------------------------------------------| 

-14h19p14----14h17p14-----18b-18b-18b--17/\~--| 
----------15----------15----------------------| 17/\ = more of a vibrato than a 
----------------------------------------------| deep whammy bend 
----------------------------------------------| 
----------------------------------------------| 
----------------------------------------------| 


Bridge/Outro On and on we sing . . . 
--------------------------------| 
--------------------------------| 
-/7-----9-----14-----12-----11--| 
--------------------------------| 
-/5-----7-----12-----10------9--| 
--------------------------------| 

Mark also plays the verse riffs in the bridge/outro 


Tab Key 
b = full bend 
p = pull off 
^p.h. = pinch harmonic 
/ = slide up 
\ = slide down 
/\ = whammy bar dive 
* = palm mute 
~ = let note(s) ring
Comments