Creed - Sister Chords & Tabs

 

Sister Chords & Tabs

Creed Chords & Tabs

Version: 1 Type: Bass Tab 0 ratings
1 star 2 stars 3 stars 4 stars 5 stars
comments

Sister Bass Tab

   
Creed
Sister
Tabbed by Marc   
Dropped D Tuning D A D G
 
Intro 1
G|----------------------------|
D|*--------------------------*|
A|*-9--10--12~---10--9--5~---*|
D|----------------------------|
 
Intro 2
G|--------------------------------------------------------------------------|
D|--------------------------------------------------------------------------|
A|-7~-8~-9~-10~-7h8-5-7h8-5-5--7h8-5-7h8-5-5-7h8-10-7h8-10-10-7h8-5-7h8-5-5-|
D|--------------------------------------------------------------------------|
 
Intro 3 & Verses
G|----|----------------------------------------|
D|----|*-------7--------0--------0--------0---*|
A|-/7-|*---7h9------7h9------7h9------7h9-----*|
D|----|--0--------0--------0--------0----------|
 
Pre-chorus 1 (Palm muted part)
G|--------------------------------------------|
D|*------------------------------------------*|
A|*--------------------------------9h10-9h10-*|
D|--0-0-10-9-0-0-9-8-0-0-8-7-0-0-0------------|
 
Pre-chorus 2 (Distortion part)
G|----------------------------------------|
D|*--------------------------------------*|
A|*----------------------------5-5-7-9-9-*|
D|--0-0-10-9-0-0-9-8-0-0-8-7-0------------|
 
Chorus("Bottled up and empty holding back...")
G|------------------------------------|
D|*----------------------------------*|
A|*--------2-2-0-0-0-----------------*|
D|--0--0-0-----------5-5-5-5-0-0-0-0--|
 
That's it! The whole song is just those riffs above a couple times.
Just figure out which riffs to play when. It's not that hard just listen you'll get it.
[ Tab from: http://www.guitartabs.cc/tabs/c/creed/sister_btab.html ]
Comments