Creed - Signs Chords & Tabs

 

Signs Chords & Tabs

Creed Chords & Tabs

Version: 7 Type: Tab 0 ratings
1 star 2 stars 3 stars 4 stars 5 stars
comments

Signs Tab

   
band: creed
song: signs
tuning: drop-D
key: b=bend, x=strum and mute w/ left hand, .= palm mute, /=slide

tabbed by: matt h.

I was looking at the tabs for this song already in place and i couldn't
beleieve it the pitch change in the intro is a bend not a hammer on! 
[ Tab from: http://www.guitartabs.cc/tabs/c/creed/signs_tab_ver_7.html ]
    intro:
    
|----------------------------------------------------------------------|
|----------------------------------------------------------------------|
|----------------------------------------------------------------------|
|----------------------------------------------------------------------|
|--------------------------------------------------------------x-x-x-x-|
|-2b-0--2b-0--2b-0-2b-0--2b-0--2b--2b-0--2b-0--2b-0-2b-0--2b-0-x-x-x-x-|
             (quicker)                        (quicker)
      
      
    heavy intro:
    
|--------------------------------------------------------------|
|--------------------------------------------------------------|
|--------------------------------------------------------------|
|--------------------------------------------------------------|
|-2b-0--2b-0--2b-0-2b-0--2b-0--2b--2b-0--2b-0--2b-0-2b-0--2b-0-|
|-2b-0--2b-0--2b-0-2b-0--2b-0--2b--2b-0--2b-0--2b-0-2b-0--2b-0-|
       
        
    verse:  
    
|-----------------------------------|
|-----------------------------------|
|-----------------------------------|
|-----------------------------------|
|-2b-0--2b-0--2b-0--2b-0----------3-|
|-2b-0--2b-0--2b-0--2b-0--0-0-2-3-3-|
                          . . . .
                         (this is one of a few fills
                          ...u can also try putting in 
                          your own)
  
    
    bridge:


|-------------------------------------------------------------------------|
|-------------------------------------------------------------------------|
|-------------------------------------------------------------------------|
|-------------------------------------------------------------------------|
|-------------------------------------------------------------10-------10-|
|-8-8-8-8-8-8-8-8-7-7-7-7-7-7-7-7-5-5-5-5-5-5-5-5-10-10-10-10-10-10-10-10-|
                                                |-2-|
                                                |-2-|


    verse
    bridge-for this one just take the same notes and make them chords


    2nd bridge:

|---------------|
|---------------|
|---------------|
|---------------|
|-3/8--3/7--3-0-|
|-3/8--3/7--3-0-|

    
   bridge
   2nd bridge


Thats it...its not too hard to play...have fun!!! Peace.
Comments