Creed - Signs Chords & Tabs

 

Signs Chords & Tabs

Creed Chords & Tabs

Version: 3 Type: Tab 0 ratings
1 star 2 stars 3 stars 4 stars 5 stars
comments

Signs Tab

   
Author/Artist: Creed
Title: Signs
Album: Weathered
Tuning: Drop D tuning
Transcribed by: Matt Cummins
Email: Cummins007@hotmail.com

Intro – (distortion)
-------------------------------------------------------------------|-------|
-------------------------------------------------------------------|-------|
-------------------------------------------------------------------|-------|
-------------------------------------------------------------------|2-0-0--|
-------------------------------------------------------------------|2-0-0--|
-2h3--2--0----2h3--2--0----2h3p2p0----2h3--2--0----2h3--2--0--2b---|2-0-0--|
                                         
Then this – (in at 0:12) 
--------------------------------------------------------------------|
--------------------------------------------------------------------|
--------------------------------------------------------------------|
-2h3--2--0----2h3--2--0----2h3p2p0----2h3--2--0----2h3--2--0----2b--|
-2h3--2--0----2h3--2--0----2h3p2p0----2h3--2--0----2h3--2--0----2b--|
-2h3--2--0----2h3--2--0----2h3p2p0----2h3--2--0----2h3--2--0----2b--|

Verse – (in at 0:24)                                                                              
------------------------------------------------|
------------------------------------------------|
------------------------------------------------|
-2h3--2-0----2h3--2-0----2h3--2-0----2h3--2--0--|
-2h3--2-0----2h3--2-0----2h3--2-0----2h3--2--0--|
-2h3--2-0----2h3--2-0----2h3--2-0----2h3--2--0--|

Fill 1 – (all palm muted, in at 0:32)                                                                              
-----------------------------------------------|
-----------------------------------------------|
-----------------------------------------------|
-2-2--3-3--5--0-0-0---2h3—2-0---0-0---2h3-2-0--|
-2-2--3-3--5--0-0-0---2h3-2-0---0-0---2h3-2-0--|
-2-2--3-3--5--0-0-0---2h3—2-0---0-0---2h3-2-0--|

Play the verse again

Fill 2 – (in at 0:40)
------------|
------------|
------------|
------------|
------5ph^--|
-3b---------|


Chorus – (all palm muted with a light distortion, in at 1:09)                                                                              
D|------------------------------0--|-------------------------------0--|
A|------------------------------0--|-------------------------------0--|
D|-8-8-8-8-8-8-8-8-8-8-8-8-8-8-----|--7-7-7-7-7-7-7-7-7-7-7-7-7-7-----|
                                                                             
D|------------------------------|-------------------------|-------------------|
A|------------------------------|-------------------------|-------------------|
D|-3-3-3-3-3-3-3-3-3-3-3-3-3-3--|--10-10-10-10--10/12\10--|--9-9-9-9--9/10\9--|
                                                                              
D|------------------------------0--|-------------------------------0--|--------
A|------------------------------0--|-------------------------------0--|--------
D|-8-8-8-8-8-8-8-8-8-8-8-8-8-8-----|--7-7-7-7-7-7-7-7-7-7-7-7-7-7-----|--------
[ Tab from: http://www.guitartabs.cc/tabs/c/creed/signs_tab_ver_3.html ]
D|--------------------------------2~--|
A|--------------------------------2~--|
D|-3-3-3-3-3-3-3-3-3-3-3-3-3-3----2~--|
                                                                              
Then the verse – (in at 1:30)

Then the chorus – (in at 2:28)

Heavy chorus – (heavy distortion, in at 2:39)                                                                             
---------------------------------|----------------------------------|
---------------------------------|----------------------------------|
---------------------------------|----------------------------------|
-8-8-8-8-8-8-8-8-8-8-8-8-8-8--0--|--7-7-7-7-7-7-7-7-7-7-7-7-7-7--0--|
-8-8-8-8-8-8-8-8-8-8-8-8-8-8--0--|--7-7-7-7-7-7-7-7-7-7-7-7-7-7--0--|
-8-8-8-8-8-8-8-8-8-8-8-8-8-8--0--|--7-7-7-7-7-7-7-7-7-7-7-7-7-7--0--|

-----------------------------------|
-----------------------------------|
-----------------------------------|
-3-3-3-3-3-3-3-3-3-3-3-3-3-3---2~--|
-3-3-3-3-3-3-3-3-3-3-3-3-3-3---2~--|
-3-3-3-3-3-3-3-3-3-3-3-3-3-3---2~--|


Interlude – (tremolo effect, in at 2:49)
---------------------|
---------------------|
---------------------|
---------------------|
----1------0---------|
-3------3------3--0--|
                                                                             
Bridge – (at 3:07)
---------------------------|
---------------------------|
---------------------------|
-3----8----3----7----3--0--|
-3----8----3----7----3--0--|
-3----8----3----7----3--0--|

“Come on and see the signs” - (at 3:33)
---------------------------|
---------------------------|
------3---------2----------|
-3----3----3----2---0-0-0--|
-3----1----3----0---0-0-0--|
-3---------3--------0-0-0--|
                    
Last chorus – (at 3:40)
---------------------------------|----------------------------------|
---------------------------------|----------------------------------|
---------------------------------|----------------------------------|
-8-8-8-8-8-8-8-8-8-8-8-8-8-8--0--|--7-7-7-7-7-7-7-7-7-7-7-7-7-7--0--|
-8-8-8-8-8-8-8-8-8-8-8-8-8-8--0--|--7-7-7-7-7-7-7-7-7-7-7-7-7-7--0--|
-8-8-8-8-8-8-8-8-8-8-8-8-8-8--0--|--7-7-7-7-7-7-7-7-7-7-7-7-7-7--0--|
                                                                              
---------------------------------|--------------------------------------------|
---------------------------------|--------------------------------------------|
---------------------------------|-------12b------12/14-------11b------11/12--|
-3-3-3-3-3-3-3-3-3-3-3-3-3-3--0--|--0-0------0-0---------0-0------0-0---------|
-3-3-3-3-3-3-3-3-3-3-3-3-3-3--0--|--0-0--10b-0-0--10/12--0-0---9b-0-0---9/10--|
-3-3-3-3-3-3-3-3-3-3-3-3-3-3--0--|--0-0------0-0---------0-0------0-0---------|

Repeat the beginning of the chorus

-----------------------------------|
-----------------------------------|
-----------------------------------|
-3-3-3-3-3-3-3-3-3-3-3-3-3-3---2~--|
-3-3-3-3-3-3-3-3-3-3-3-3-3-3---2~--|
-3-3-3-3-3-3-3-3-3-3-3-3-3-3---2~--|


Bridge – (in at 4:01)
---------------------------|
---------------------------|
------3---------2----------|
-3----3----3----2----3--0--|
-3----1----3----0----3--0--|
-3---------3---------3--0--|
 
                                                                             
Tab Key –
p = pull off
b = bend
/ = slide up
\ = slide down
ph^ = pinch harmonic

Any comment/queries, feel free to email me
Comments