Creed - Signs Chords & Tabs

 

Signs Chords & Tabs

Creed Chords & Tabs

Version: 2 Type: Tab 0 ratings
1 star 2 stars 3 stars 4 stars 5 stars
comments

Signs Tab

   
Creed Signs

Transcribed by MARCUS ISSEL

DROP D TUNING

^ - Bend
* - Artificial (pinch) harmonic
p - pull off
pm.... - palm mute
x - mute
/ - Slide


Intro 1
e|-------------------------------|
B|-------------------------------|
G|-------------------------------|
D|-------------------------------|
A|-------------------------------|
D|-2^-0-2^-0-2^P0-2^-0-2^-0-0-3^-|

e|--------------------------------|
B|--------------------------------|
G|--------------------------------|
D|--------------------------2-0-0-|
A|--------------------------2-0-0-|
D|-2^-0-2^-0-2^PO-2^-0-0-3^-2-0-0-|
                            PM...

Intro 2
e|-----------------------------|
B|-----------------------------|
G|-----------------------------|
D|-2^-0-2^-0-2^p0-2^-0-2^-0-2^-|
A|-2^-0-2^-0-2^p0-2^-0-2^-0-2^-|
D|-2^-0-2^-0-2^p0-2^-0-2^-0-2^-|

e|------------------------|
B|------------------------|
G|------------------------|
D|-2^-0-2^-0-2^p0-2^-0-2^-|
A|-2^-0-2^-0-2^p0-2^-0-2^-|
D|-2^-0-2^-0-2^p0-2^-0-2^-|


Verse Riff                                                     End 1
[ Tab from: http://www.guitartabs.cc/tabs/c/creed/signs_tab_ver_2.html ]
e|--------------------------x--------------------                                                B|--------------------------x--------------------  |--------------------------|
G|--------------------------x--------------------  |--------------------------|
D|-2^-0--2^-0--2^-0--2^-0---x---2^-0--2^-0--2^-0-  |2-2-3-3-5-0-0-0-2^-0-0-2^-|
A|-2^-0--2^-0--2^-0--2^-0---x---2^-0--2^-0--2^-0-  |2-2-3-3-5-0-0-0-2^-0-0-2^-|
D|-2^-0--2^-0--2^-0--2^-0---x---2^-0--2^-0--2^-0-  |2-2-3-3-5-0-0-0-2^-0-0-2^-|
                                                    pm.......   pm.    pm.

  END 2
e|------|
B|------|
G|------|
D|------|
A|---5*-|
D|-3----|


CHORUS (LIGHTER DISTORTION)
e|-----------------------------------------------------------------------------------------
B|-----------------------------------------------------------------------------------------
G|-----------------------------------------------------------------------------------------
D|-----------------------------0-----------------------------0-----------------------------
A|-----------------------------0-----------------------------0-----------------------------
D|-8-8-8-8-8-8-8-8-8-8-8-8-8-8---7-7-7-7-7-7-7-7-7-7-7-7-7-7---3-3-3-3-3-3-3-3-3-3-3-3-3-3-
 
               END 1                         END 2
e|-------------------------------------|    e|---|
B|-------------------------------------|    B|---|
G|-------------------------------------|    G|---|
D|-------------------------------------|    D|-2-|
A|-------------------------------------|    A|-2-|
D|-10-10-10-10-10/12/10-9-9-9-9-9/10/9-|    D|-2-|

(For the second and third chorus just play it the same except use power chords)


BRIDGE (Tremolo effect)

e|-------------|
B|-------------|
G|-------------|
D|-------------|
A|---1---0-----|
D|-3---3---3-0-|

e|-------------|
B|-------------|
G|---3---2-----|
D|-3-3-3-2-3-0-|
A|-3-1-3-0-3-0-|
D|-3---3---3-0-|
Comments