Creed - One Chords & Tabs

 

One Chords & Tabs

Creed Chords & Tabs

Version: 7 Type: Tab

One Tab

   
Alright here's the version that Mark plays live

CREED - ONE
Sander Stijnen
Intro and verses:
                       |--3--|      
     E  E  E  E  E  E  S  S  S S S  
E||--------------------------------|
B||--------------------------------|
G||--------------------------------|
D||--------------------------------|
A||--7--7--7--6--6--6--6h-7p-6-0-0-|
E||--9--9--9--9--9--9----------0---|


   E.   S  S  S E  S  S   E    Q     
------------------------------------|
------------------------------------|
------------------------------------|
--11---11-11-11-9--L-11-(11)--14----|
---0----0--0--0-0--L--0---0----0----|
------------------------------------|


  E.  S S S E  S S S S E  S S  
------------------------------|
------------------------------|
--9---9-9-9-9----9-9-9-9--2-2-|
--9---9-9-9-9--L-9-9-9-9--4-4-|
--7---7-7-7-7----7-7-7-7--0-0-|
------------------------------|

Chorus:

  E.  S S S E  S S S S E  S S  
------------------------------|
------------------------------|
------------------------------|
--4---4-4-4-4--L-4-4-4-4------|
--2---2-2-2-2--L-2-2-2-2--7-7-|
------------------------------|


  E.  S S S E  S E.  E  S S  
----------------------------|
----------------------------|
--4---4-4-4-4--L-4---4------|
--4---4-4-4-4--L-4---4------|
--2---2-2-2-2--L-2---2--0-0-|
------------------------0-0-|


  E.  S S S E  S E.  E  S S  
----------------------------|
----------------------------|
----------------------------|
--4---4-4-4-4--L-4---4------|
--4---4-4-4-4--L-4---4------|
--2---2-2-2-2--L-2---2--0-0-|


  E.  S S S E  S S S S E  S S  
------------------------------|
------------------------------|
--6---6-6-6-6--L-6-6-6-6--6-6-|
--6---6-6-6-6--L-6-6-6-6--6-6-|
--4---4-4-4-4--L-4-4-4-4--4-4-|
------------------------------|


  E.  S S S E  S S S S E  E   
-----------------------------|
-----------------------------|
-----------------------------|
--6---6-6-6-6--6-6-6-6-6-----|
--6---6-6-6-6--6-6-6-6-6--0--|
--4---4-4-4-4--4-4-4-4-4--0--|


  E.  S S S E  S E.  E  S S  
----------------------------|
----------------------------|
--4---4-4-4-4--L-4---4------|
--4---4-4-4-4--L-4---4------|
--2---2-2-2-2--L-2---2--0-0-|
------------------------0-0-|


  E.  S S S E  S E.  E  S S  
----------------------------|
----------------------------|
----------------------------|
--4---4-4-4-4--L-4---4------|
--4---4-4-4-4--L-4---4------|
--2---2-2-2-2--L-2---2--0-0-|


  E.  S S S E  S S S S E  S S  
------------------------------|
------------------------------|
--6---6-6-6-6--L-6-6-6-6--6-6-|
--6---6-6-6-6--L-6-6-6-6--6-6-|
--4---4-4-4-4--L-4-4-4-4--4-4-|
------------------------------|


  E.  S S S E  S S S S E  E   
-----------------------------|
-----------------------------|
-----------------------------|
--6---6-6-6-6--6-6-6-6-6--0--|
--6---6-6-6-6--6-6-6-6-6--0--|
--4---4-4-4-4--4-4-4-4-4--0--|

Interlude:

  E.  S E  E  Q.     E   
-----------2--L---------|
-----------2--L---------|
--------4---------------|
------4-----------------|
--2---------------------|
---------------------0--|

[ Tab from: http://www.guitartabs.cc/tabs/c/creed/one_tab_ver_7.html ]
  Q    E  E  E  Q    E   
-------0----------------|
----------0--L----------|
----------------3-------|
---------------------4--|
------------------------|
--2---------------------|


  E.  S E  E  Q.     E   
-----------4--L---------|
-----------4--L---------|
--------6---------------|
------6-----------------|
--4---------------------|
---------------------0--|


  E.  S E  E  E  E  E  E   
--------------------------|
--------------------------|
-----------6--L--L--5-----|
--------4-----------------|
------6----------------0--|
--4--------------4--------|


  E.  S E  E  Q.     E   
-----------2--L---------|
-----------2--L---------|
--------4---------------|
------4-----------------|
--2---------------------|
---------------------0--|


  Q    E  E  E  Q    E   
-------0----------------|
----------0--L----------|
----------------3-------|
---------------------4--|
------------------------|
--2---------------------|


  E.  S E  E  Q.     E   
-----------4--L---------|
-----------4--L---------|
--------6---------------|
------6-----------------|
--4---------------------|
---------------------0--|


  E.  S E  E  E  E  E  E   
--------------------------|
--------------------------|
-----------6--L--L--5-----|
--------4-----------------|
------6----------------0--|
--4--------------4--------|


  S S S S E  E  Q    E  E   
---------------------0-----|
--------4-L-------------0--|
-------------4--L----------|
------4--------------------|
--2-2----------------------|
---------------------------|


  S S S S E  E  Q    E  E   
---------------------0-----|
--------4-L-------------0--|
-------------4--L----------|
--4-4-4--------------------|
---------------------------|
---------------------------|


  S S S S E  E  S E.  S  S E   
------------------------------|
--------4-L-------4---5p-4----|
-------------4--L----------4--|
--4-4-4-----------------------|
------------------------------|
------------------------------|


  E.  S E  S S S E.  E  E   
---------------------------|
---------------------------|
--9---9-L--9-9-L-9---9--9--|
--9---9-L--9-9-L-9---9--9--|
--7---7-L--7-7-L-7---7--7--|
--0---0-L--0-0-L-0---0--0--|


  S S S S E  E  Q    E  E   
---------------------0-----|
--------4-L-------------0--|
-------------4--L----------|
------4--------------------|
--2-2----------------------|
---------------------------|


  S S S S E  E  Q    E  E   
---------------------0-----|
--------4-L-------------0--|
-------------4--L----------|
--4-4-4--------------------|
---------------------------|
---------------------------|


  S S S S E  E  S E.  S  S E   
------------------------------|
--------4-L-------4---5p-4----|
-------------4--L----------4--|
--4-4-4-----------------------|
------------------------------|
------------------------------|


  E.  S E  S S S E.  E  E   
---------------------------|
---------------------------|
--9---9-L--9-9-L-9---9--9--|
--9---9-L--9-9-L-9---9--9--|
--7---7-L--7-7-L-7---7--7--|
--0---0-L--0-0-L-0---0--0--|