Creed - One Chords & Tabs

 

One Chords & Tabs

Creed Chords & Tabs

Version: 1 Type: Tab 0 ratings
1 star 2 stars 3 stars 4 stars 5 stars
comments

One Tab

Title: One
Artist: Creed
Album: My own Prison
Tunning: EADGBE
Tabbed by: George Hawxhurst

Intro
E  :--------------------|--------------------|---------------------|
B  :--------------------|--------------------|---------------------|
G  :--------------------|--------------------|---------------------|
D  :--------------------|----11---11-11-11-9-|---11-/14\--9---9-9-9|
A  :-7-7-7-6-6-6-6-/7-\6|0-0--0----0--0--0-0-|----0-/-0\--7---7-7-7|
E  :-9-9-9-9-9-9--------|0-------------------|---------------------|

E  :----------------|----------------|-----------------|
B  :----------------|----------------|-----------------|
G  :----------------|----------------|-----------------|
D  :-9---9-9-9-9--4-|4--4-4-4-4--4-4-|4-4--------------|
A  :-7---7-7-7-7--0-|0--2-2-2-2--2-2-|2-2--/-7-7-------|
E  :----------------|----------------|-----------------|
[ Tab from: http://www.guitartabs.cc/tabs/c/creed/one_tab.html ]
E  :-------------------------|----------------|----------------|
B  :-------------------------|----------------|----------------|
G  :-------------------------|----------------|----------------|
D  :------------------------4|--4-4-4-4---4--4|----------------|
A  :2-6-2-6-2-6-2-6-2-6-0-0-2|--2-2-2-2---2--2|-0-0-4--4-4-4-4-|
E  :2-6-2-6-2-6-2-6-2-6-0-0--|----------------|-0-0-2--2-2-2-2-|

E  :--------|        --------|----------------|----------------|----------------|
B  :--------|        --------|----------------|----------------|----------------|
G  :--------|        --------|----------------|----------------|----------------|
D  :--------| 7x     ----6--6|-6-6-6--6-6-6-6-|-6-6------------|----------------|
A  :-4--4---|        ----4--4|-4-4-4--4-4-4-4-|-4-4--6--6-6-6-6|--6-6-6-6-6--0--|
E  :-2--2---|        --0-----|----------------|------4--4-4-4-4|--4-4-4-4-4--0--|            



E  :----------------|----------------|----------------|
B  :----------------|----------------|----------------|
G  :----------------|----------------|----------------|
D  :-6-6-6-6-6-6-6--|-2-2-2-2-2-2-2-0|-9-9-9-9-9-9----|
A  :-4-4-4-4-4-4-4-0|-0-0-0-0-0-0-0-0|-7-7-7-7-7-7-0--|
E  :---------------0|----------------|-0-0-0-0-0-0-0--|
Comments