Creed - One Last Breath Chords & Tabs

 

One Last Breath Chords & Tabs

Creed Chords & Tabs

Version: 8 Type: Tab 1 rating
1 star 2 stars 3 stars 4 stars 5 stars
comments

One Last Breath Tab

   
this is easy
all you have to do is play a few chords in a certain way.
here goes. standard tuning(eadgbe)

    D                                      Bm
|---2----5---0h2----------------------------------------------
|----------------3------2-3h5---5p3p2p0----------3---2h3------
|------------------2------------------------4-------------4---
|---0--0---------------0-------0----------------4---4-------4-
|-------------------------------------------2-----------------
|-------------------------------------------------------------

[ Tab from: http://www.guitartabs.cc/tabs/c/creed/one_last_breath_tab_ver_8.html ]
    G                     D
|---------------3--2--0---2--3--0h2---------------------------
|-------------2----------------------3--------2-2h3p2---------
|---------0-----------------------------2----2----------------
|-------0---0-------------0--0--------------2-----------------
|-------------------------------------------------------------
|----3--------------------------------------------------------
                                    Chord Dictionary
                                    D  Bm Bm2 G
   Bm2         G                    
|----------2------------2-----|     2  2  2   2
|--------2------------2---2---|     3  3  2   2
|------4------------0-------0-|     2  4  4   0
|----4------------0-----------|     0  4  4   0
|--2--------------------------|     X  2  2   2
|---------------3-------------|     X  X  X   3



CHORUS

PLAY IN THIS ORDER(REPEAT)

|--2--0--0--2--|
|--3--0--0--2--|
|--3--3--4--0--|
|--0--4--4--0--|
|--X--0--2--2--|
|--X--X--X--3--|
Comments