Creed - One Last Breath Chords & Tabs

 

One Last Breath Chords & Tabs

Creed Chords & Tabs

Version: 7 Type: Tab 4 ratings
1 star 2 stars 3 stars 4 stars 5 stars
comments

One Last Breath Tab

   
Creed

---

Intro/Verse
e|-2---5---0h2-----------------------------------------------------3-2-----------|
B|-------------3-----2-3-5--5p3p2h3p2------3--2h3-0------------3-----------------|
G|---------------0----------------------------------0------0---------------------|
D|-0-0---0-----------------------------------------------0---0---0---------------|
A|-----------------0-----0-(0)---------2-2--2------------------------------------|
E|-----------------------------------------------------3-------------------------|

[ Tab from: http://www.guitartabs.cc/tabs/c/creed/one_last_breath_tab_ver_7.html ]
e|-2---3---2-2h3p2-------------------------------2---------------3---------------|
B|-----------------3---------2-2h3p2---0-------2---2---------------3-------------|
G|-------------------0-----2---------2-------4-------4---------------0-----------|
D|-0-0---0---------------2-----------------4-----------4-----0-------------------|
A|---------------------0-----------------2-----------------2---2-----------------|
E|-------------------------------------------------------3-----------------------|



Chords (Clean)
     D              F#            Bm         G
e|---2----------|---0----------|--2-------|--3-------|
B|---3----------|---0----------|--3-------|--3-------|
G|---2----------|---3----------|--4-------|--4-------|
D|---0----------|---4----------|--4-------|--5-------|
A|--------------|---4----------|--2-------|--5-------|
E|--------------|---2----------|--2-------|--3-------|


Dirty/Distorted Part

[D] [F#] [Bm] [G] x4

[Bm] [G] x2

[E] [Bm] [A] [D] [A] [Bm] [G] x2  last time end on [D]
Strum clean chords again
Distorted Outro
[D] [F#] [Bm] [G] x4
For the ending play the intro riff.

Hope you love it…..

Rusty Senn email me at rustysenn@mindspringcom  
Comments