Creed - One Last Breath Chords & Tabs

 

One Last Breath Chords & Tabs

Creed Chords & Tabs

Version: 3 Type: Tab 0 ratings
1 star 2 stars 3 stars 4 stars 5 stars
comments

One Last Breath Tab

CREED
One Last Breath
				  (really quick)
Intro				       \   /
-2-----5-----0h2------------------------------------|
------------------3--------2--3--3h5---2h3p2--3-----|
---------------------2------------------------------|
-0--0-----0-----------------------------------------|
------------------------0-----------0------------0--|
----------------------------------------------------|

------------------------------------------3--2--|
-0-----3-----2h3--0-----------------3-----------|
---------------------0--------0-----------------|
---------------------------0-----0-----0--------|
-2--2-----2-------------------------------------|
------------------------3-----------------------|
[ Tab from: http://www.guitartabs.cc/tabs/c/creed/one_last_breath_tab_ver_3.html ]
-2-----3-----2--0h2p0------------------------------------|
-----------------------3--------------2--2h3p2-----------|
-----------------------------------2------------2-----0--|
-0--0-----0---------------------2------------------4-----|
--------------------------4--0---------------------------|
---------------------------------------------------------|

|-------------2-----------------------3----------|
|----------2-----2-----------------------3-------|
|-------4-----------4-----------------------0----|
|----4-----------------4--------0--------------0-|
|-2--------------------------2-----2-------------|
|-------------------------3----------------------|


the intro is what probably 90% of you people care about, so if you want the
rest, look somewhere else. have fun. joel- chungkaa@hotmail.com
Comments