Creed - One Last Breath Chords & Tabs

 

One Last Breath Chords & Tabs

Creed Chords & Tabs

Version: 2 Type: Tab 0 ratings
1 star 2 stars 3 stars 4 stars 5 stars
comments

One Last Breath Tab

   
Title:  One Last Breath
Artist: Creed
Album: Weathered
Tunning: Regular (E,A,D,G,B,E)
Transcription by:  Matt Heger (mjheger@oakland.edu)



This should be close to 100% correct. The better you play it sylistically, 
the more it will sound like the track.
 


Intro/Verse
e|-2---5---0h2-----------------------------------------------------3-2-----------|
B|-------------3---2-3-3h5--5h3h2h3-----0--3--2h3-0-----------3------------------|
G|--------------2-----------------------------------0-----0-----2----------------|
D|-0-0---0----------------------------------------------0---0--------------------|
A|-----------------0-----0----------0---2-2--2-----------------------------------|
E|----------------------------------------------------3--------------------------|

[ Tab from: http://www.guitartabs.cc/tabs/c/creed/one_last_breath_tab_ver_2.html ]
e|-2---3---2-0h2r0---------------------------------2----------------3------------|
B|-----------------3---------2-2h3r2r0-----------2---2----------------3----------|
G|-------------------------2-------------------4-------4----------4-----4--------|
D|-0-0---0---------------2------------4-5----4-----------4------5---------5------|
A|-------------------4-0-------------------2------------------5------------------|
E|----------------------------------------------------------3--------------------|



Chords 
     D              F#            Bm         G
e|---2----------|---0----------|--2-------|--3-------|
B|---3----------|---0----------|--3-------|--3-------|
G|---2----------|---3----------|--4-------|--4-------|
D|---0----------|---4----------|--4-------|--5-------|
A|--------------|---4----------|--2-------|--5-------|
E|--------------|---2----------|--2-------|--3-------|


Distorted Part

[D] [F#] [Bm] [G] x4

Bridge

[Bm] [G] x2

[E] [Bm] [A] [D] [A] [Bm] [G] x2  last time end on [D] after the [G]


Guitar at Violin Part (clean)

[D] [F#] [Bm] [G] 

The ending is the same as the intro and verses

Comments